ISO-10303-21;
HEADER;
FILE_DESCRIPTION( ( '' ), '1' );
FILE_NAME( '//se01002/users/anro/AGRU_25705004011_PE_100_schwarz_Rohr__5m_40X3_7__SDR11__ISO_S-5_05.stp', '2017-12-11T09:34:11', ( '' ), ( '' ), ' ', ' ', ' ' );
FILE_SCHEMA( ( 'automotive_design' ) );
ENDSEC;
DATA;
#1 = MECHANICAL_DESIGN_GEOMETRIC_PRESENTATION_REPRESENTATION( ' ', ( #10, #11, #12, #13, #14, #15, #16, #17, #18, #19, #20, #21, #22, #23, #24, #25, #26, #27, #28, #29, #30, #31, #32, #33, #34, #35, #36 ), #6 );
#2 = PRODUCT_DEFINITION_CONTEXT( '', #37, 'design' );
#3 = APPLICATION_PROTOCOL_DEFINITION( 'INTERNATIONAL STANDARD', 'automotive_design', 1994, #37 );
#4 = PRODUCT_CATEGORY_RELATIONSHIP( 'NONE', 'NONE', #38, #39 );
#5 = SHAPE_DEFINITION_REPRESENTATION( #40, #41 );
#6 =  ( GEOMETRIC_REPRESENTATION_CONTEXT( 3 )GLOBAL_UNCERTAINTY_ASSIGNED_CONTEXT( ( #44 ) )GLOBAL_UNIT_ASSIGNED_CONTEXT( ( #46, #47, #48 ) )REPRESENTATION_CONTEXT( 'NONE', 'WORKSPACE' ) );
#10 = STYLED_ITEM( '', ( #50 ), #51 );
#11 = STYLED_ITEM( '', ( #52 ), #53 );
#12 = STYLED_ITEM( '', ( #54 ), #55 );
#13 = STYLED_ITEM( '', ( #56 ), #57 );
#14 = STYLED_ITEM( '', ( #58 ), #59 );
#15 = STYLED_ITEM( '', ( #60 ), #61 );
#16 = STYLED_ITEM( '', ( #62 ), #63 );
#17 = STYLED_ITEM( '', ( #64 ), #65 );
#18 = STYLED_ITEM( '', ( #66 ), #67 );
#19 = STYLED_ITEM( '', ( #68 ), #69 );
#20 = STYLED_ITEM( '', ( #70 ), #71 );
#21 = STYLED_ITEM( '', ( #72 ), #73 );
#22 = STYLED_ITEM( '', ( #74 ), #75 );
#23 = STYLED_ITEM( '', ( #76 ), #77 );
#24 = STYLED_ITEM( '', ( #78 ), #79 );
#25 = STYLED_ITEM( '', ( #80 ), #81 );
#26 = STYLED_ITEM( '', ( #82 ), #83 );
#27 = STYLED_ITEM( '', ( #84 ), #85 );
#28 = STYLED_ITEM( '', ( #86 ), #87 );
#29 = STYLED_ITEM( '', ( #88 ), #89 );
#30 = STYLED_ITEM( '', ( #90 ), #91 );
#31 = STYLED_ITEM( '', ( #92 ), #93 );
#32 = STYLED_ITEM( '', ( #94 ), #95 );
#33 = STYLED_ITEM( '', ( #96 ), #97 );
#34 = STYLED_ITEM( '', ( #98 ), #99 );
#35 = STYLED_ITEM( '', ( #100 ), #101 );
#36 = STYLED_ITEM( '', ( #102 ), #103 );
#37 = APPLICATION_CONTEXT( ' ' );
#38 = PRODUCT_CATEGORY( 'part', 'NONE' );
#39 = PRODUCT_RELATED_PRODUCT_CATEGORY( 'detail', ' ', ( #104 ) );
#40 = PRODUCT_DEFINITION_SHAPE( 'NONE', 'NONE', #105 );
#41 = ADVANCED_BREP_SHAPE_REPRESENTATION( '1', ( #77, #106 ), #6 );
#44 = UNCERTAINTY_MEASURE_WITH_UNIT( LENGTH_MEASURE( 1.00000000000000E-006 ), #46, '', '' );
#46 =  ( CONVERSION_BASED_UNIT( 'MILLIMETRE', #109 )LENGTH_UNIT(  )NAMED_UNIT( #112 ) );
#47 =  ( NAMED_UNIT( #114 )PLANE_ANGLE_UNIT(  )SI_UNIT( $, .RADIAN. ) );
#48 =  ( NAMED_UNIT( #114 )SOLID_ANGLE_UNIT(  )SI_UNIT( $, .STERADIAN. ) );
#50 = PRESENTATION_STYLE_ASSIGNMENT( ( #120 ) );
#51 = EDGE_CURVE( '', #99, #79, #121, .T. );
#52 = PRESENTATION_STYLE_ASSIGNMENT( ( #122 ) );
#53 = VERTEX_POINT( '', #123 );
#54 = PRESENTATION_STYLE_ASSIGNMENT( ( #124 ) );
#55 = VERTEX_POINT( '', #125 );
#56 = PRESENTATION_STYLE_ASSIGNMENT( ( #126 ) );
#57 = VERTEX_POINT( '', #127 );
#58 = PRESENTATION_STYLE_ASSIGNMENT( ( #128 ) );
#59 = VERTEX_POINT( '', #129 );
#60 = PRESENTATION_STYLE_ASSIGNMENT( ( #130 ) );
#61 = EDGE_CURVE( '', #59, #55, #131, .T. );
#62 = PRESENTATION_STYLE_ASSIGNMENT( ( #132 ) );
#63 = ADVANCED_FACE( '', ( #133, #134 ), #135, .F. );
#64 = PRESENTATION_STYLE_ASSIGNMENT( ( #136 ) );
#65 = EDGE_CURVE( '', #59, #85, #137, .T. );
#66 = PRESENTATION_STYLE_ASSIGNMENT( ( #138 ) );
#67 = EDGE_CURVE( '', #55, #69, #139, .T. );
#68 = PRESENTATION_STYLE_ASSIGNMENT( ( #140 ) );
#69 = VERTEX_POINT( '', #141 );
#70 = PRESENTATION_STYLE_ASSIGNMENT( ( #142 ) );
#71 = EDGE_CURVE( '', #57, #53, #143, .T. );
#72 = PRESENTATION_STYLE_ASSIGNMENT( ( #144 ) );
#73 = ADVANCED_FACE( '', ( #145 ), #146, .T. );
#74 = PRESENTATION_STYLE_ASSIGNMENT( ( #147 ) );
#75 = ADVANCED_FACE( '', ( #148 ), #149, .F. );
#76 = PRESENTATION_STYLE_ASSIGNMENT( ( #150 ) );
#77 = MANIFOLD_SOLID_BREP( '1', #151 );
#78 = PRESENTATION_STYLE_ASSIGNMENT( ( #152 ) );
#79 = VERTEX_POINT( '', #153 );
#80 = PRESENTATION_STYLE_ASSIGNMENT( ( #154 ) );
#81 = EDGE_CURVE( '', #53, #79, #155, .T. );
#82 = PRESENTATION_STYLE_ASSIGNMENT( ( #156 ) );
#83 = EDGE_CURVE( '', #53, #57, #157, .T. );
#84 = PRESENTATION_STYLE_ASSIGNMENT( ( #158 ) );
#85 = VERTEX_POINT( '', #159 );
#86 = PRESENTATION_STYLE_ASSIGNMENT( ( #160 ) );
#87 = EDGE_CURVE( '', #69, #55, #161, .T. );
#88 = PRESENTATION_STYLE_ASSIGNMENT( ( #162 ) );
#89 = EDGE_CURVE( '', #85, #59, #163, .T. );
#90 = PRESENTATION_STYLE_ASSIGNMENT( ( #164 ) );
#91 = EDGE_CURVE( '', #99, #57, #165, .T. );
#92 = PRESENTATION_STYLE_ASSIGNMENT( ( #166 ) );
#93 = ADVANCED_FACE( '', ( #167, #168 ), #169, .T. );
#94 = PRESENTATION_STYLE_ASSIGNMENT( ( #170 ) );
#95 = ADVANCED_FACE( '', ( #171 ), #172, .F. );
#96 = PRESENTATION_STYLE_ASSIGNMENT( ( #173 ) );
#97 = ADVANCED_FACE( '', ( #174 ), #175, .T. );
#98 = PRESENTATION_STYLE_ASSIGNMENT( ( #176 ) );
#99 = VERTEX_POINT( '', #177 );
#100 = PRESENTATION_STYLE_ASSIGNMENT( ( #178 ) );
#101 = EDGE_CURVE( '', #79, #99, #179, .T. );
#102 = PRESENTATION_STYLE_ASSIGNMENT( ( #180 ) );
#103 = EDGE_CURVE( '', #69, #85, #181, .T. );
#104 = PRODUCT( '1', '1', 'PART-1-DESC', ( #182 ) );
#105 = PRODUCT_DEFINITION( 'NONE', 'NONE', #183, #2 );
#106 = AXIS2_PLACEMENT_3D( '', #184, #185, #186 );
#109 = LENGTH_MEASURE_WITH_UNIT( LENGTH_MEASURE( 1.00000000000000 ), #187 );
#112 = DIMENSIONAL_EXPONENTS( 1.00000000000000, 0.000000000000000, 0.000000000000000, 0.000000000000000, 0.000000000000000, 0.000000000000000, 0.000000000000000 );
#114 = DIMENSIONAL_EXPONENTS( 0.000000000000000, 0.000000000000000, 0.000000000000000, 0.000000000000000, 0.000000000000000, 0.000000000000000, 0.000000000000000 );
#120 = CURVE_STYLE( '', #188, POSITIVE_LENGTH_MEASURE( 1.00000000000000E-006 ), #189 );
#121 = CIRCLE( '', #190, 20.0000000000000 );
#122 = POINT_STYLE( ' ', #191, POSITIVE_LENGTH_MEASURE( 1.00000000000000E-006 ), #192 );
#123 = CARTESIAN_POINT( '', ( 5000.00000000000, 2.44921270764475E-015, 20.0000000000000 ) );
#124 = POINT_STYLE( ' ', #193, POSITIVE_LENGTH_MEASURE( 1.00000000000000E-006 ), #194 );
#125 = CARTESIAN_POINT( '', ( 0.000000000000000, 1.99610835673048E-015, 16.3000000000000 ) );
#126 = POINT_STYLE( ' ', #195, POSITIVE_LENGTH_MEASURE( 1.00000000000000E-006 ), #196 );
#127 = CARTESIAN_POINT( '', ( 5000.00000000000, 0.000000000000000, -20.0000000000000 ) );
#128 = POINT_STYLE( ' ', #197, POSITIVE_LENGTH_MEASURE( 1.00000000000000E-006 ), #198 );
#129 = CARTESIAN_POINT( '', ( 5000.00000000000, 1.99610835673048E-015, 16.3000000000000 ) );
#130 = CURVE_STYLE( '', #199, POSITIVE_LENGTH_MEASURE( 1.00000000000000E-006 ), #200 );
#131 = LINE( '', #201, #202 );
#132 = SURFACE_STYLE_USAGE( .BOTH., #203 );
#133 = FACE_OUTER_BOUND( '', #204, .T. );
#134 = FACE_BOUND( '', #205, .T. );
#135 = PLANE( '', #206 );
#136 = CURVE_STYLE( '', #207, POSITIVE_LENGTH_MEASURE( 1.00000000000000E-006 ), #208 );
#137 = CIRCLE( '', #209, 16.3000000000000 );
#138 = CURVE_STYLE( '', #210, POSITIVE_LENGTH_MEASURE( 1.00000000000000E-006 ), #211 );
#139 = CIRCLE( '', #212, 16.3000000000000 );
#140 = POINT_STYLE( ' ', #213, POSITIVE_LENGTH_MEASURE( 1.00000000000000E-006 ), #214 );
#141 = CARTESIAN_POINT( '', ( 0.000000000000000, 0.000000000000000, -16.3000000000000 ) );
#142 = CURVE_STYLE( '', #215, POSITIVE_LENGTH_MEASURE( 1.00000000000000E-006 ), #216 );
#143 = CIRCLE( '', #217, 20.0000000000000 );
#144 = SURFACE_STYLE_USAGE( .BOTH., #218 );
#145 = FACE_OUTER_BOUND( '', #219, .T. );
#146 = CYLINDRICAL_SURFACE( '', #220, 20.0000000000000 );
#147 = SURFACE_STYLE_USAGE( .BOTH., #221 );
#148 = FACE_OUTER_BOUND( '', #222, .T. );
#149 = CYLINDRICAL_SURFACE( '', #223, 16.3000000000000 );
#150 = SURFACE_STYLE_USAGE( .BOTH., #224 );
#151 = CLOSED_SHELL( '', ( #73, #75, #95, #97, #93, #63 ) );
#152 = POINT_STYLE( ' ', #225, POSITIVE_LENGTH_MEASURE( 1.00000000000000E-006 ), #226 );
#153 = CARTESIAN_POINT( '', ( 0.000000000000000, 2.44921270764475E-015, 20.0000000000000 ) );
#154 = CURVE_STYLE( '', #227, POSITIVE_LENGTH_MEASURE( 1.00000000000000E-006 ), #228 );
#155 = LINE( '', #229, #230 );
#156 = CURVE_STYLE( '', #231, POSITIVE_LENGTH_MEASURE( 1.00000000000000E-006 ), #232 );
#157 = CIRCLE( '', #233, 20.0000000000000 );
#158 = POINT_STYLE( ' ', #234, POSITIVE_LENGTH_MEASURE( 1.00000000000000E-006 ), #235 );
#159 = CARTESIAN_POINT( '', ( 5000.00000000000, 0.000000000000000, -16.3000000000000 ) );
#160 = CURVE_STYLE( '', #236, POSITIVE_LENGTH_MEASURE( 1.00000000000000E-006 ), #237 );
#161 = CIRCLE( '', #238, 16.3000000000000 );
#162 = CURVE_STYLE( '', #239, POSITIVE_LENGTH_MEASURE( 1.00000000000000E-006 ), #240 );
#163 = CIRCLE( '', #241, 16.3000000000000 );
#164 = CURVE_STYLE( '', #242, POSITIVE_LENGTH_MEASURE( 1.00000000000000E-006 ), #243 );
#165 = LINE( '', #244, #245 );
#166 = SURFACE_STYLE_USAGE( .BOTH., #246 );
#167 = FACE_OUTER_BOUND( '', #247, .T. );
#168 = FACE_BOUND( '', #248, .T. );
#169 = PLANE( '', #249 );
#170 = SURFACE_STYLE_USAGE( .BOTH., #250 );
#171 = FACE_OUTER_BOUND( '', #251, .T. );
#172 = CYLINDRICAL_SURFACE( '', #252, 16.3000000000000 );
#173 = SURFACE_STYLE_USAGE( .BOTH., #253 );
#174 = FACE_OUTER_BOUND( '', #254, .T. );
#175 = CYLINDRICAL_SURFACE( '', #255, 20.0000000000000 );
#176 = POINT_STYLE( ' ', #256, POSITIVE_LENGTH_MEASURE( 1.00000000000000E-006 ), #257 );
#177 = CARTESIAN_POINT( '', ( 0.000000000000000, 0.000000000000000, -20.0000000000000 ) );
#178 = CURVE_STYLE( '', #258, POSITIVE_LENGTH_MEASURE( 1.00000000000000E-006 ), #259 );
#179 = CIRCLE( '', #260, 20.0000000000000 );
#180 = CURVE_STYLE( '', #261, POSITIVE_LENGTH_MEASURE( 1.00000000000000E-006 ), #262 );
#181 = LINE( '', #263, #264 );
#182 = PRODUCT_CONTEXT( '', #37, 'mechanical' );
#183 = PRODUCT_DEFINITION_FORMATION_WITH_SPECIFIED_SOURCE( ' ', 'NONE', #104, .NOT_KNOWN. );
#184 = CARTESIAN_POINT( '', ( 0.000000000000000, 0.000000000000000, 0.000000000000000 ) );
#185 = DIRECTION( '', ( 0.000000000000000, 0.000000000000000, 1.00000000000000 ) );
#186 = DIRECTION( '', ( 1.00000000000000, 0.000000000000000, 0.000000000000000 ) );
#187 =  ( NAMED_UNIT( #112 )LENGTH_UNIT(  )SI_UNIT( .MILLI., .METRE. ) );
#188 = DRAUGHTING_PRE_DEFINED_CURVE_FONT( 'continuous' );
#189 = COLOUR_RGB( '', 0.689999997615810, 0.689999997615810, 0.689999997615810 );
#190 = AXIS2_PLACEMENT_3D( '', #266, #267, #268 );
#191 = PRE_DEFINED_MARKER( '' );
#192 = COLOUR_RGB( '', 0.689999997615810, 0.689999997615810, 0.689999997615810 );
#193 = PRE_DEFINED_MARKER( '' );
#194 = COLOUR_RGB( '', 0.689999997615810, 0.689999997615810, 0.689999997615810 );
#195 = PRE_DEFINED_MARKER( '' );
#196 = COLOUR_RGB( '', 0.689999997615810, 0.689999997615810, 0.689999997615810 );
#197 = PRE_DEFINED_MARKER( '' );
#198 = COLOUR_RGB( '', 0.689999997615810, 0.689999997615810, 0.689999997615810 );
#199 = DRAUGHTING_PRE_DEFINED_CURVE_FONT( 'continuous' );
#200 = COLOUR_RGB( '', 0.689999997615810, 0.689999997615810, 0.689999997615810 );
#201 = CARTESIAN_POINT( '', ( 0.000000000000000, 1.99610835673048E-015, 16.3000000000000 ) );
#202 = VECTOR( '', #269, 1.00000000000000 );
#203 = SURFACE_SIDE_STYLE( '', ( #270 ) );
#204 = EDGE_LOOP( '', ( #271, #272 ) );
#205 = EDGE_LOOP( '', ( #273, #274 ) );
#206 = AXIS2_PLACEMENT_3D( '', #275, #276, #277 );
#207 = DRAUGHTING_PRE_DEFINED_CURVE_FONT( 'continuous' );
#208 = COLOUR_RGB( '', 0.689999997615810, 0.689999997615810, 0.689999997615810 );
#209 = AXIS2_PLACEMENT_3D( '', #278, #279, #280 );
#210 = DRAUGHTING_PRE_DEFINED_CURVE_FONT( 'continuous' );
#211 = COLOUR_RGB( '', 0.689999997615810, 0.689999997615810, 0.689999997615810 );
#212 = AXIS2_PLACEMENT_3D( '', #281, #282, #283 );
#213 = PRE_DEFINED_MARKER( '' );
#214 = COLOUR_RGB( '', 0.689999997615810, 0.689999997615810, 0.689999997615810 );
#215 = DRAUGHTING_PRE_DEFINED_CURVE_FONT( 'continuous' );
#216 = COLOUR_RGB( '', 0.689999997615810, 0.689999997615810, 0.689999997615810 );
#217 = AXIS2_PLACEMENT_3D( '', #284, #285, #286 );
#218 = SURFACE_SIDE_STYLE( '', ( #287 ) );
#219 = EDGE_LOOP( '', ( #288, #289, #290, #291 ) );
#220 = AXIS2_PLACEMENT_3D( '', #292, #293, #294 );
#221 = SURFACE_SIDE_STYLE( '', ( #295 ) );
#222 = EDGE_LOOP( '', ( #296, #297, #298, #299 ) );
#223 = AXIS2_PLACEMENT_3D( '', #300, #301, #302 );
#224 = SURFACE_SIDE_STYLE( '', ( #303 ) );
#225 = PRE_DEFINED_MARKER( '' );
#226 = COLOUR_RGB( '', 0.689999997615810, 0.689999997615810, 0.689999997615810 );
#227 = DRAUGHTING_PRE_DEFINED_CURVE_FONT( 'continuous' );
#228 = COLOUR_RGB( '', 0.689999997615810, 0.689999997615810, 0.689999997615810 );
#229 = CARTESIAN_POINT( '', ( 0.000000000000000, 2.44921270764475E-015, 20.0000000000000 ) );
#230 = VECTOR( '', #304, 1.00000000000000 );
#231 = DRAUGHTING_PRE_DEFINED_CURVE_FONT( 'continuous' );
#232 = COLOUR_RGB( '', 0.689999997615810, 0.689999997615810, 0.689999997615810 );
#233 = AXIS2_PLACEMENT_3D( '', #305, #306, #307 );
#234 = PRE_DEFINED_MARKER( '' );
#235 = COLOUR_RGB( '', 0.689999997615810, 0.689999997615810, 0.689999997615810 );
#236 = DRAUGHTING_PRE_DEFINED_CURVE_FONT( 'continuous' );
#237 = COLOUR_RGB( '', 0.689999997615810, 0.689999997615810, 0.689999997615810 );
#238 = AXIS2_PLACEMENT_3D( '', #308, #309, #310 );
#239 = DRAUGHTING_PRE_DEFINED_CURVE_FONT( 'continuous' );
#240 = COLOUR_RGB( '', 0.689999997615810, 0.689999997615810, 0.689999997615810 );
#241 = AXIS2_PLACEMENT_3D( '', #311, #312, #313 );
#242 = DRAUGHTING_PRE_DEFINED_CURVE_FONT( 'continuous' );
#243 = COLOUR_RGB( '', 0.689999997615810, 0.689999997615810, 0.689999997615810 );
#244 = CARTESIAN_POINT( '', ( 0.000000000000000, -2.44921270764475E-015, -20.0000000000000 ) );
#245 = VECTOR( '', #314, 1.00000000000000 );
#246 = SURFACE_SIDE_STYLE( '', ( #315 ) );
#247 = EDGE_LOOP( '', ( #316, #317 ) );
#248 = EDGE_LOOP( '', ( #318, #319 ) );
#249 = AXIS2_PLACEMENT_3D( '', #320, #321, #322 );
#250 = SURFACE_SIDE_STYLE( '', ( #323 ) );
#251 = EDGE_LOOP( '', ( #324, #325, #326, #327 ) );
#252 = AXIS2_PLACEMENT_3D( '', #328, #329, #330 );
#253 = SURFACE_SIDE_STYLE( '', ( #331 ) );
#254 = EDGE_LOOP( '', ( #332, #333, #334, #335 ) );
#255 = AXIS2_PLACEMENT_3D( '', #336, #337, #338 );
#256 = PRE_DEFINED_MARKER( '' );
#257 = COLOUR_RGB( '', 0.689999997615810, 0.689999997615810, 0.689999997615810 );
#258 = DRAUGHTING_PRE_DEFINED_CURVE_FONT( 'continuous' );
#259 = COLOUR_RGB( '', 0.689999997615810, 0.689999997615810, 0.689999997615810 );
#260 = AXIS2_PLACEMENT_3D( '', #339, #340, #341 );
#261 = DRAUGHTING_PRE_DEFINED_CURVE_FONT( 'continuous' );
#262 = COLOUR_RGB( '', 0.689999997615810, 0.689999997615810, 0.689999997615810 );
#263 = CARTESIAN_POINT( '', ( 0.000000000000000, -1.99610835673048E-015, -16.3000000000000 ) );
#264 = VECTOR( '', #342, 1.00000000000000 );
#266 = CARTESIAN_POINT( '', ( 0.000000000000000, 0.000000000000000, 0.000000000000000 ) );
#267 = DIRECTION( '', ( 1.00000000000000, -0.000000000000000, 0.000000000000000 ) );
#268 = DIRECTION( '', ( 0.000000000000000, 0.000000000000000, -1.00000000000000 ) );
#269 = DIRECTION( '', ( -1.00000000000000, 0.000000000000000, 0.000000000000000 ) );
#270 = SURFACE_STYLE_FILL_AREA( #343 );
#271 = ORIENTED_EDGE( '', *, *, #51, .F. );
#272 = ORIENTED_EDGE( '', *, *, #101, .F. );
#273 = ORIENTED_EDGE( '', *, *, #87, .T. );
#274 = ORIENTED_EDGE( '', *, *, #67, .T. );
#275 = CARTESIAN_POINT( '', ( 0.000000000000000, 0.000000000000000, 0.000000000000000 ) );
#276 = DIRECTION( '', ( 1.00000000000000, 0.000000000000000, 0.000000000000000 ) );
#277 = DIRECTION( '', ( 0.000000000000000, 0.000000000000000, -1.00000000000000 ) );
#278 = CARTESIAN_POINT( '', ( 5000.00000000000, 0.000000000000000, 0.000000000000000 ) );
#279 = DIRECTION( '', ( 1.00000000000000, 0.000000000000000, 0.000000000000000 ) );
#280 = DIRECTION( '', ( 0.000000000000000, 0.000000000000000, -1.00000000000000 ) );
#281 = CARTESIAN_POINT( '', ( 0.000000000000000, 0.000000000000000, 0.000000000000000 ) );
#282 = DIRECTION( '', ( 1.00000000000000, -0.000000000000000, 0.000000000000000 ) );
#283 = DIRECTION( '', ( 0.000000000000000, 0.000000000000000, -1.00000000000000 ) );
#284 = CARTESIAN_POINT( '', ( 5000.00000000000, 0.000000000000000, 0.000000000000000 ) );
#285 = DIRECTION( '', ( -1.00000000000000, 0.000000000000000, 0.000000000000000 ) );
#286 = DIRECTION( '', ( 0.000000000000000, 0.000000000000000, -1.00000000000000 ) );
#287 = SURFACE_STYLE_FILL_AREA( #344 );
#288 = ORIENTED_EDGE( '', *, *, #91, .F. );
#289 = ORIENTED_EDGE( '', *, *, #51, .T. );
#290 = ORIENTED_EDGE( '', *, *, #81, .F. );
#291 = ORIENTED_EDGE( '', *, *, #83, .T. );
#292 = CARTESIAN_POINT( '', ( 0.000000000000000, 0.000000000000000, 0.000000000000000 ) );
#293 = DIRECTION( '', ( -1.00000000000000, -0.000000000000000, -0.000000000000000 ) );
#294 = DIRECTION( '', ( 0.000000000000000, 0.000000000000000, -1.00000000000000 ) );
#295 = SURFACE_STYLE_FILL_AREA( #345 );
#296 = ORIENTED_EDGE( '', *, *, #103, .F. );
#297 = ORIENTED_EDGE( '', *, *, #67, .F. );
#298 = ORIENTED_EDGE( '', *, *, #61, .F. );
#299 = ORIENTED_EDGE( '', *, *, #65, .T. );
#300 = CARTESIAN_POINT( '', ( 0.000000000000000, 0.000000000000000, 0.000000000000000 ) );
#301 = DIRECTION( '', ( -1.00000000000000, -0.000000000000000, -0.000000000000000 ) );
#302 = DIRECTION( '', ( 0.000000000000000, 0.000000000000000, -1.00000000000000 ) );
#303 = SURFACE_STYLE_FILL_AREA( #346 );
#304 = DIRECTION( '', ( -1.00000000000000, -0.000000000000000, -0.000000000000000 ) );
#305 = CARTESIAN_POINT( '', ( 5000.00000000000, 0.000000000000000, 0.000000000000000 ) );
#306 = DIRECTION( '', ( -1.00000000000000, 0.000000000000000, 0.000000000000000 ) );
#307 = DIRECTION( '', ( 0.000000000000000, 0.000000000000000, -1.00000000000000 ) );
#308 = CARTESIAN_POINT( '', ( 0.000000000000000, 0.000000000000000, 0.000000000000000 ) );
#309 = DIRECTION( '', ( 1.00000000000000, -0.000000000000000, 0.000000000000000 ) );
#310 = DIRECTION( '', ( 0.000000000000000, 0.000000000000000, -1.00000000000000 ) );
#311 = CARTESIAN_POINT( '', ( 5000.00000000000, 0.000000000000000, 0.000000000000000 ) );
#312 = DIRECTION( '', ( 1.00000000000000, 0.000000000000000, 0.000000000000000 ) );
#313 = DIRECTION( '', ( 0.000000000000000, 0.000000000000000, -1.00000000000000 ) );
#314 = DIRECTION( '', ( 1.00000000000000, 0.000000000000000, 0.000000000000000 ) );
#315 = SURFACE_STYLE_FILL_AREA( #347 );
#316 = ORIENTED_EDGE( '', *, *, #71, .F. );
#317 = ORIENTED_EDGE( '', *, *, #83, .F. );
#318 = ORIENTED_EDGE( '', *, *, #89, .F. );
#319 = ORIENTED_EDGE( '', *, *, #65, .F. );
#320 = CARTESIAN_POINT( '', ( 5000.00000000000, 0.000000000000000, 0.000000000000000 ) );
#321 = DIRECTION( '', ( 1.00000000000000, 0.000000000000000, 0.000000000000000 ) );
#322 = DIRECTION( '', ( 0.000000000000000, 0.000000000000000, -1.00000000000000 ) );
#323 = SURFACE_STYLE_FILL_AREA( #348 );
#324 = ORIENTED_EDGE( '', *, *, #103, .T. );
#325 = ORIENTED_EDGE( '', *, *, #89, .T. );
#326 = ORIENTED_EDGE( '', *, *, #61, .T. );
#327 = ORIENTED_EDGE( '', *, *, #87, .F. );
#328 = CARTESIAN_POINT( '', ( 0.000000000000000, 0.000000000000000, 0.000000000000000 ) );
#329 = DIRECTION( '', ( -1.00000000000000, -0.000000000000000, -0.000000000000000 ) );
#330 = DIRECTION( '', ( 0.000000000000000, 0.000000000000000, -1.00000000000000 ) );
#331 = SURFACE_STYLE_FILL_AREA( #349 );
#332 = ORIENTED_EDGE( '', *, *, #91, .T. );
#333 = ORIENTED_EDGE( '', *, *, #71, .T. );
#334 = ORIENTED_EDGE( '', *, *, #81, .T. );
#335 = ORIENTED_EDGE( '', *, *, #101, .T. );
#336 = CARTESIAN_POINT( '', ( 0.000000000000000, 0.000000000000000, 0.000000000000000 ) );
#337 = DIRECTION( '', ( -1.00000000000000, -0.000000000000000, -0.000000000000000 ) );
#338 = DIRECTION( '', ( 0.000000000000000, 0.000000000000000, -1.00000000000000 ) );
#339 = CARTESIAN_POINT( '', ( 0.000000000000000, 0.000000000000000, 0.000000000000000 ) );
#340 = DIRECTION( '', ( 1.00000000000000, -0.000000000000000, 0.000000000000000 ) );
#341 = DIRECTION( '', ( 0.000000000000000, 0.000000000000000, -1.00000000000000 ) );
#342 = DIRECTION( '', ( 1.00000000000000, 0.000000000000000, 0.000000000000000 ) );
#343 = FILL_AREA_STYLE( '', ( #350 ) );
#344 = FILL_AREA_STYLE( '', ( #351 ) );
#345 = FILL_AREA_STYLE( '', ( #352 ) );
#346 = FILL_AREA_STYLE( '', ( #353 ) );
#347 = FILL_AREA_STYLE( '', ( #354 ) );
#348 = FILL_AREA_STYLE( '', ( #355 ) );
#349 = FILL_AREA_STYLE( '', ( #356 ) );
#350 = FILL_AREA_STYLE_COLOUR( '', #357 );
#351 = FILL_AREA_STYLE_COLOUR( '', #358 );
#352 = FILL_AREA_STYLE_COLOUR( '', #359 );
#353 = FILL_AREA_STYLE_COLOUR( '', #360 );
#354 = FILL_AREA_STYLE_COLOUR( '', #361 );
#355 = FILL_AREA_STYLE_COLOUR( '', #362 );
#356 = FILL_AREA_STYLE_COLOUR( '', #363 );
#357 = COLOUR_RGB( '', 0.689999997615810, 0.689999997615810, 0.689999997615810 );
#358 = COLOUR_RGB( '', 0.689999997615810, 0.689999997615810, 0.689999997615810 );
#359 = COLOUR_RGB( '', 0.689999997615810, 0.689999997615810, 0.689999997615810 );
#360 = COLOUR_RGB( '', 0.689999997615810, 0.689999997615810, 0.689999997615810 );
#361 = COLOUR_RGB( '', 0.689999997615810, 0.689999997615810, 0.689999997615810 );
#362 = COLOUR_RGB( '', 0.689999997615810, 0.689999997615810, 0.689999997615810 );
#363 = COLOUR_RGB( '', 0.689999997615810, 0.689999997615810, 0.689999997615810 );
ENDSEC;
END-ISO-10303-21;
