ISO-10303-21;
HEADER;
/* Generated by software containing ST-Developer
 * from STEP Tools, Inc. (www.steptools.com) 
 */

FILE_DESCRIPTION(
/* description */ (''),
/* implementation_level */ '2;1');

FILE_NAME(
/* name */ 
'Q:\\Ric010\\FF7\\FIPlastiCAD\\FIP\\Lavoro\\PVC Fittings\\PVC Fittings
 STEP\\CIV\\CIV032.ipt.stp',
/* time_stamp */ '2013-10-01T14:36:19+02:00',
/* author */ ('bfaro'),
/* organization */ (''),
/* preprocessor_version */ 'ST-DEVELOPER v15.2',
/* originating_system */ 'Autodesk Inventor 2014',
/* authorisation */ '');

FILE_SCHEMA (('AUTOMOTIVE_DESIGN { 1 0 10303 214 3 1 1 }'));
ENDSEC;

DATA;
#10=SHAPE_REPRESENTATION_RELATIONSHIP('SRR','None',#195,#11);
#11=ADVANCED_BREP_SHAPE_REPRESENTATION($,(#104),#186);
#12=STYLED_ITEM($,(#203),#104);
#13=PLANE($,#121);
#14=PLANE($,#122);
#15=CYLINDRICAL_SURFACE($,#110,20.4999999999999);
#16=CYLINDRICAL_SURFACE($,#114,20.7999999999999);
#17=CYLINDRICAL_SURFACE($,#118,15.9999999999998);
#18=FACE_BOUND($,#39,.T.);
#19=FACE_BOUND($,#41,.T.);
#20=FACE_BOUND($,#43,.T.);
#21=FACE_BOUND($,#45,.T.);
#22=FACE_BOUND($,#47,.T.);
#23=FACE_BOUND($,#49,.T.);
#24=FACE_BOUND($,#51,.T.);
#25=TOROIDAL_SURFACE($,#108,12.4999999999999,8.);
#26=TOROIDAL_SURFACE($,#112,20.4999999999999,0.3);
#27=TOROIDAL_SURFACE($,#116,19.2999999999998,1.5);
#28=FACE_OUTER_BOUND($,#37,.T.);
#29=FACE_OUTER_BOUND($,#38,.T.);
#30=FACE_OUTER_BOUND($,#40,.T.);
#31=FACE_OUTER_BOUND($,#42,.T.);
#32=FACE_OUTER_BOUND($,#44,.T.);
#33=FACE_OUTER_BOUND($,#46,.T.);
#34=FACE_OUTER_BOUND($,#48,.T.);
#35=FACE_OUTER_BOUND($,#50,.T.);
#36=FACE_OUTER_BOUND($,#52,.T.);
#37=EDGE_LOOP($,(#77));
#38=EDGE_LOOP($,(#78));
#39=EDGE_LOOP($,(#79));
#40=EDGE_LOOP($,(#80));
#41=EDGE_LOOP($,(#81));
#42=EDGE_LOOP($,(#82));
#43=EDGE_LOOP($,(#83));
#44=EDGE_LOOP($,(#84));
#45=EDGE_LOOP($,(#85));
#46=EDGE_LOOP($,(#86));
#47=EDGE_LOOP($,(#87));
#48=EDGE_LOOP($,(#88));
#49=EDGE_LOOP($,(#89));
#50=EDGE_LOOP($,(#90));
#51=EDGE_LOOP($,(#91));
#52=EDGE_LOOP($,(#92));
#53=CIRCLE($,#107,13.8513513513513);
#54=CIRCLE($,#109,20.4999999999999);
#55=CIRCLE($,#111,20.4999999999999);
#56=CIRCLE($,#113,20.7999999999999);
#57=CIRCLE($,#115,20.7999999999998);
#58=CIRCLE($,#117,19.2999999999998);
#59=CIRCLE($,#119,15.9999999999997);
#60=CIRCLE($,#120,15.9999999999999);
#61=VERTEX_POINT($,#161);
#62=VERTEX_POINT($,#164);
#63=VERTEX_POINT($,#167);
#64=VERTEX_POINT($,#170);
#65=VERTEX_POINT($,#173);
#66=VERTEX_POINT($,#176);
#67=VERTEX_POINT($,#179);
#68=VERTEX_POINT($,#181);
#69=EDGE_CURVE($,#61,#61,#53,.T.);
#70=EDGE_CURVE($,#62,#62,#54,.T.);
#71=EDGE_CURVE($,#63,#63,#55,.T.);
#72=EDGE_CURVE($,#64,#64,#56,.T.);
#73=EDGE_CURVE($,#65,#65,#57,.T.);
#74=EDGE_CURVE($,#66,#66,#58,.T.);
#75=EDGE_CURVE($,#67,#67,#59,.T.);
#76=EDGE_CURVE($,#68,#68,#60,.T.);
#77=ORIENTED_EDGE($,*,*,#69,.F.);
#78=ORIENTED_EDGE($,*,*,#69,.T.);
#79=ORIENTED_EDGE($,*,*,#70,.F.);
#80=ORIENTED_EDGE($,*,*,#70,.T.);
#81=ORIENTED_EDGE($,*,*,#71,.F.);
#82=ORIENTED_EDGE($,*,*,#71,.T.);
#83=ORIENTED_EDGE($,*,*,#72,.F.);
#84=ORIENTED_EDGE($,*,*,#72,.T.);
#85=ORIENTED_EDGE($,*,*,#73,.F.);
#86=ORIENTED_EDGE($,*,*,#73,.T.);
#87=ORIENTED_EDGE($,*,*,#74,.F.);
#88=ORIENTED_EDGE($,*,*,#75,.T.);
#89=ORIENTED_EDGE($,*,*,#76,.F.);
#90=ORIENTED_EDGE($,*,*,#74,.T.);
#91=ORIENTED_EDGE($,*,*,#75,.F.);
#92=ORIENTED_EDGE($,*,*,#76,.T.);
#93=SPHERICAL_SURFACE($,#106,82.0000000000005);
#94=ADVANCED_FACE($,(#28),#93,.T.);
#95=ADVANCED_FACE($,(#29,#18),#25,.T.);
#96=ADVANCED_FACE($,(#30,#19),#15,.T.);
#97=ADVANCED_FACE($,(#31,#20),#26,.T.);
#98=ADVANCED_FACE($,(#32,#21),#16,.T.);
#99=ADVANCED_FACE($,(#33,#22),#27,.T.);
#100=ADVANCED_FACE($,(#34,#23),#17,.F.);
#101=ADVANCED_FACE($,(#35,#24),#13,.T.);
#102=ADVANCED_FACE($,(#36),#14,.T.);
#103=CLOSED_SHELL($,(#94,#95,#96,#97,#98,#99,#100,#101,#102));
#104=MANIFOLD_SOLID_BREP('Solido1',#103);
#105=AXIS2_PLACEMENT_3D('placement',#159,#123,#124);
#106=AXIS2_PLACEMENT_3D($,#160,#125,#126);
#107=AXIS2_PLACEMENT_3D($,#162,#127,#128);
#108=AXIS2_PLACEMENT_3D($,#163,#129,#130);
#109=AXIS2_PLACEMENT_3D($,#165,#131,#132);
#110=AXIS2_PLACEMENT_3D($,#166,#133,#134);
#111=AXIS2_PLACEMENT_3D($,#168,#135,#136);
#112=AXIS2_PLACEMENT_3D($,#169,#137,#138);
#113=AXIS2_PLACEMENT_3D($,#171,#139,#140);
#114=AXIS2_PLACEMENT_3D($,#172,#141,#142);
#115=AXIS2_PLACEMENT_3D($,#174,#143,#144);
#116=AXIS2_PLACEMENT_3D($,#175,#145,#146);
#117=AXIS2_PLACEMENT_3D($,#177,#147,#148);
#118=AXIS2_PLACEMENT_3D($,#178,#149,#150);
#119=AXIS2_PLACEMENT_3D($,#180,#151,#152);
#120=AXIS2_PLACEMENT_3D($,#182,#153,#154);
#121=AXIS2_PLACEMENT_3D($,#183,#155,#156);
#122=AXIS2_PLACEMENT_3D($,#184,#157,#158);
#123=DIRECTION('axis',(0.,0.,1.));
#124=DIRECTION('refdir',(1.,0.,0.));
#125=DIRECTION('center_axis',(6.12323399573678E-017,0.,1.));
#126=DIRECTION('ref_axis',(1.,0.,0.));
#127=DIRECTION('center_axis',(0.,0.,-1.));
#128=DIRECTION('ref_axis',(-1.,0.,0.));
#129=DIRECTION('center_axis',(0.,0.,-1.));
#130=DIRECTION('ref_axis',(-1.,0.,0.));
#131=DIRECTION('center_axis',(0.,0.,-1.));
#132=DIRECTION('ref_axis',(-1.,0.,0.));
#133=DIRECTION('center_axis',(0.,0.,-1.));
#134=DIRECTION('ref_axis',(-1.,0.,0.));
#135=DIRECTION('center_axis',(0.,0.,-1.));
#136=DIRECTION('ref_axis',(-1.,0.,0.));
#137=DIRECTION('center_axis',(0.,0.,-1.));
#138=DIRECTION('ref_axis',(-1.,0.,0.));
#139=DIRECTION('center_axis',(0.,0.,-1.));
#140=DIRECTION('ref_axis',(-1.,0.,0.));
#141=DIRECTION('center_axis',(0.,0.,-1.));
#142=DIRECTION('ref_axis',(-1.,0.,0.));
#143=DIRECTION('center_axis',(0.,0.,-1.));
#144=DIRECTION('ref_axis',(-1.,0.,0.));
#145=DIRECTION('center_axis',(0.,0.,-1.));
#146=DIRECTION('ref_axis',(-1.,0.,0.));
#147=DIRECTION('center_axis',(0.,0.,-1.));
#148=DIRECTION('ref_axis',(-1.,0.,0.));
#149=DIRECTION('center_axis',(0.,0.,-1.));
#150=DIRECTION('ref_axis',(-1.,0.,0.));
#151=DIRECTION('center_axis',(0.,0.,-1.));
#152=DIRECTION('ref_axis',(-1.,0.,0.));
#153=DIRECTION('center_axis',(0.,0.,-1.));
#154=DIRECTION('ref_axis',(-1.,0.,0.));
#155=DIRECTION('center_axis',(0.,0.,-1.));
#156=DIRECTION('ref_axis',(-1.,0.,0.));
#157=DIRECTION('center_axis',(0.,0.,-1.));
#158=DIRECTION('ref_axis',(-1.,0.,0.));
#159=CARTESIAN_POINT('',(0.,0.,0.));
#160=CARTESIAN_POINT('Origin',(1.127871E-013,-1.319328E-013,-50.9999999999999));
#161=CARTESIAN_POINT('',(-13.8513513513512,-8.00536E-014,29.8216559205603));
#162=CARTESIAN_POINT('Origin',(1.07458E-013,-8.049769E-014,29.8216559205602));
#163=CARTESIAN_POINT('Origin',(5.594364E-014,-8.533162E-014,21.9366163185543));
#164=CARTESIAN_POINT('',(5.31487E-014,-20.5,21.9366163185543));
#165=CARTESIAN_POINT('Origin',(5.594364E-014,-8.555366E-014,21.9366163185543));
#166=CARTESIAN_POINT('Origin',(1.508743E-014,-8.953639E-014,15.4683081592771));
#167=CARTESIAN_POINT('',(-2.8894E-014,-20.5,8.99999999999999));
#168=CARTESIAN_POINT('Origin',(-2.510264E-014,-9.379668E-014,8.99999999999997));
#169=CARTESIAN_POINT('Origin',(-2.798922E-014,-9.404092E-014,8.69999999999996));
#170=CARTESIAN_POINT('',(-3.082506E-014,-20.8,8.69999999999997));
#171=CARTESIAN_POINT('Origin',(-2.665695E-014,-9.398541E-014,8.69999999999996));
#172=CARTESIAN_POINT('Origin',(-4.952755E-014,-9.630578E-014,5.09999999999996));
#173=CARTESIAN_POINT('',(-7.390171E-014,-20.7999999999999,1.49999999999998));
#174=CARTESIAN_POINT('Origin',(-7.26757E-014,-9.8529E-014,1.49999999999997));
#175=CARTESIAN_POINT('Origin',(-7.106587E-014,-9.851512E-014,1.49999999999998));
#176=CARTESIAN_POINT('',(19.2999999999997,-1.00878610262877E-013,-2.1316282072803E-014));
#177=CARTESIAN_POINT('Origin',(-8.210716E-013,-9.947598E-013,-2.131628E-013));
#178=CARTESIAN_POINT('Origin',(-1.33226762955019E-014,-9.251992E-014,10.9999999999999));
#179=CARTESIAN_POINT('',(15.9999999999997,-1.013904E-013,-1.012523E-013));
#180=CARTESIAN_POINT('Origin',(-8.210716E-013,-9.947598E-013,2.524355E-028));
#181=CARTESIAN_POINT('',(15.9999999999999,-8.734611E-014,21.9999999999999));
#182=CARTESIAN_POINT('Origin',(5.594364E-014,-8.530347E-014,22.));
#183=CARTESIAN_POINT('Origin',(-17.6499999999998,-9.998617E-014,9.874187E-014));
#184=CARTESIAN_POINT('Origin',(-7.99999999999992,-8.530347E-014,22.0000000000001));
#185=UNCERTAINTY_MEASURE_WITH_UNIT(LENGTH_MEASURE(0.01),#187,
'DISTANCE_ACCURACY_VALUE',
'Maximum model space distance between geometric entities at asserted c
onnectivities');
#186=(
GEOMETRIC_REPRESENTATION_CONTEXT(3)
GLOBAL_UNCERTAINTY_ASSIGNED_CONTEXT((#185))
GLOBAL_UNIT_ASSIGNED_CONTEXT((#187,#190,#188))
REPRESENTATION_CONTEXT('','3D')
);
#187=(
LENGTH_UNIT()
NAMED_UNIT(*)
SI_UNIT(.MILLI.,.METRE.)
);
#188=(
NAMED_UNIT(*)
SI_UNIT($,.STERADIAN.)
SOLID_ANGLE_UNIT()
);
#189=DIMENSIONAL_EXPONENTS(0.,0.,0.,0.,0.,0.,0.);
#190=(
CONVERSION_BASED_UNIT('degree',#192)
NAMED_UNIT(#189)
PLANE_ANGLE_UNIT()
);
#191=(
NAMED_UNIT(*)
PLANE_ANGLE_UNIT()
SI_UNIT($,.RADIAN.)
);
#192=PLANE_ANGLE_MEASURE_WITH_UNIT(PLANE_ANGLE_MEASURE(0.01745329252),#191);
#193=SHAPE_DEFINITION_REPRESENTATION(#194,#195);
#194=PRODUCT_DEFINITION_SHAPE('',$,#197);
#195=SHAPE_REPRESENTATION('',(#105),#186);
#196=PRODUCT_DEFINITION_CONTEXT('3D Mechanical Parts',#200,'design');
#197=PRODUCT_DEFINITION('CIV032','CIV032',#198,#196);
#198=PRODUCT_DEFINITION_FORMATION('',$,#202);
#199=APPLICATION_PROTOCOL_DEFINITION('international standard',
'automotive_design',2009,#200);
#200=APPLICATION_CONTEXT(
'Core Data for Automotive Mechanical Design Process');
#201=PRODUCT_CONTEXT('3D Mechanical Parts',#200,'mechanical');
#202=PRODUCT('CIV032','CIV032',$,(#201));
#203=PRESENTATION_STYLE_ASSIGNMENT((#204));
#204=SURFACE_STYLE_USAGE(.BOTH.,#205);
#205=SURFACE_SIDE_STYLE($,(#206));
#206=SURFACE_STYLE_FILL_AREA(#207);
#207=FILL_AREA_STYLE($,(#208));
#208=FILL_AREA_STYLE_COLOUR($,#209);
#209=COLOUR_RGB('',0.509803921568627,0.509803921568627,0.588235294117647);
ENDSEC;
END-ISO-10303-21;
