ISO-10303-21;
HEADER;
/****************************************************************
 * Generated by software with PDElib inside                    *
 * PDElib Version v51a, created Wed 07/06/2011                  *
 * ITI Transcendata (http://www.transcendata.com/)              *
 ****************************************************************/
FILE_DESCRIPTION((''),'2;1');
FILE_NAME('X:\\AKTUELL Drawings mit SAP Materialnummer im Namen\\SATs und Steps und Dxfs\\MPR\\Gewindeplatte\\Steps\\151052.stp','2013-03-01T14:11:47',('DMK009'),(''),'Autodesk Inventor 2012','Autodesk Inventor 2012','');
FILE_SCHEMA(('AUTOMOTIVE_DESIGN { 1 0 10303 214 1 1 1 1 }'));
ENDSEC;
DATA;
#5=APPLICATION_CONTEXT('automotive design');
#6=APPLICATION_PROTOCOL_DEFINITION('International Standard','automotive_design',2001,#5);
#7=PRODUCT_CONTEXT('',#5,'mechanical');
#8=PRODUCT('151052','151052',$,(#7));
#9=PRODUCT_RELATED_PRODUCT_CATEGORY('part',$,(#8));
#10=PRODUCT_DEFINITION_FORMATION('',$,#8);
#11=PRODUCT_DEFINITION_CONTEXT('part definition',#5,'design');
#12=PRODUCT_DEFINITION('',$,#10,#11);
#18=(NAMED_UNIT(*)PLANE_ANGLE_UNIT()SI_UNIT($,.RADIAN.));
#19=DIMENSIONAL_EXPONENTS(0.0,0.0,0.0,0.0,0.0,0.0,0.0);
#20=PLANE_ANGLE_MEASURE_WITH_UNIT(PLANE_ANGLE_MEASURE(0.0174532925),#18);
#24=(CONVERSION_BASED_UNIT('DEGREE',#20)NAMED_UNIT(#19)PLANE_ANGLE_UNIT());
#28=(NAMED_UNIT(*)SI_UNIT($,.STERADIAN.)SOLID_ANGLE_UNIT());
#32=(LENGTH_UNIT()NAMED_UNIT(*)SI_UNIT(.MILLI.,.METRE.));
#34=UNCERTAINTY_MEASURE_WITH_UNIT(LENGTH_MEASURE(0.01),#32,'DISTANCE_ACCURACY_VALUE','');
#36=(GEOMETRIC_REPRESENTATION_CONTEXT(3)GLOBAL_UNCERTAINTY_ASSIGNED_CONTEXT((#34))GLOBAL_UNIT_ASSIGNED_CONTEXT((#24,#28,#32))REPRESENTATION_CONTEXT('None','None'));
#37=AXIS2_PLACEMENT_3D('',#38,#39,#40);
#38=CARTESIAN_POINT('',(0.0,0.0,0.0));
#39=DIRECTION('',(0.0,0.0,1.0));
#40=DIRECTION('',(1.0,0.0,0.0));
#41=SHAPE_REPRESENTATION('',(#37),#36);
#42=PRODUCT_DEFINITION_SHAPE('','',#12);
#43=SHAPE_DEFINITION_REPRESENTATION(#42,#41);
#49=(NAMED_UNIT(*)PLANE_ANGLE_UNIT()SI_UNIT($,.RADIAN.));
#50=DIMENSIONAL_EXPONENTS(0.0,0.0,0.0,0.0,0.0,0.0,0.0);
#51=PLANE_ANGLE_MEASURE_WITH_UNIT(PLANE_ANGLE_MEASURE(0.0174532925),#49);
#55=(CONVERSION_BASED_UNIT('DEGREE',#51)NAMED_UNIT(#50)PLANE_ANGLE_UNIT());
#59=(NAMED_UNIT(*)SI_UNIT($,.STERADIAN.)SOLID_ANGLE_UNIT());
#63=(LENGTH_UNIT()NAMED_UNIT(*)SI_UNIT(.MILLI.,.METRE.));
#65=UNCERTAINTY_MEASURE_WITH_UNIT(LENGTH_MEASURE(0.000001),#63,'DISTANCE_ACCURACY_VALUE','');
#67=(GEOMETRIC_REPRESENTATION_CONTEXT(3)GLOBAL_UNCERTAINTY_ASSIGNED_CONTEXT((#65))GLOBAL_UNIT_ASSIGNED_CONTEXT((#55,#59,#63))REPRESENTATION_CONTEXT('','3D'));
#68=CARTESIAN_POINT('',(0.0,0.0,-40.428950023467102));
#69=DIRECTION('',(0.0,0.0,1.0));
#70=DIRECTION('',(1.0,0.0,0.0));
#71=AXIS2_PLACEMENT_3D('',#68,#69,#70);
#72=CYLINDRICAL_SURFACE('',#71,3.3235);
#73=CARTESIAN_POINT('',(-3.3235,-4.070114E-016,-7.999999999999998));
#74=VERTEX_POINT('',#73);
#75=CARTESIAN_POINT('',(0.0,0.0,-7.999999999999998));
#76=DIRECTION('',(0.0,0.0,1.0));
#77=DIRECTION('',(1.0,0.0,0.0));
#78=AXIS2_PLACEMENT_3D('',#75,#76,#77);
#79=CIRCLE('',#78,3.3235);
#80=EDGE_CURVE('',#74,#74,#79,.T.);
#81=ORIENTED_EDGE('',*,*,#80,.F.);
#82=EDGE_LOOP('',(#81));
#83=FACE_OUTER_BOUND('',#82,.T.);
#84=CARTESIAN_POINT('',(3.3235,0.0,0.0));
#85=VERTEX_POINT('',#84);
#86=CARTESIAN_POINT('',(0.0,0.0,0.0));
#87=DIRECTION('',(0.0,0.0,-1.0));
#88=DIRECTION('',(1.0,0.0,0.0));
#89=AXIS2_PLACEMENT_3D('',#86,#87,#88);
#90=CIRCLE('',#89,3.3235);
#91=EDGE_CURVE('',#85,#85,#90,.T.);
#92=ORIENTED_EDGE('',*,*,#91,.F.);
#93=EDGE_LOOP('',(#92));
#94=FACE_BOUND('',#93,.T.);
#95=ADVANCED_FACE('',(#83,#94),#72,.F.);
#96=CARTESIAN_POINT('',(10.25,12.750000000000002,0.0));
#97=DIRECTION('',(-0.891006524188368,-1.551711E-016,-0.453990499739547));
#98=DIRECTION('',(0.0,1.0,0.0));
#99=AXIS2_PLACEMENT_3D('',#96,#97,#98);
#100=PLANE('',#99);
#101=CARTESIAN_POINT('',(11.269050898988862,-9.75,-2.0));
#102=VERTEX_POINT('',#101);
#103=CARTESIAN_POINT('',(10.250000000000004,-9.75,0.0));
#104=VERTEX_POINT('',#103);
#105=CARTESIAN_POINT('',(11.269050898988858,-9.750000000000002,-2.000000000000002));
#106=DIRECTION('',(-0.453990499739546,0.0,0.891006524188368));
#107=VECTOR('',#106,2.244652475268721);
#108=LINE('',#105,#107);
#109=EDGE_CURVE('',#102,#104,#108,.T.);
#110=ORIENTED_EDGE('',*,*,#109,.F.);
#111=CARTESIAN_POINT('',(11.269050898988857,9.75,-2.0));
#112=VERTEX_POINT('',#111);
#113=CARTESIAN_POINT('',(11.269050898988858,9.75,-2.0));
#114=DIRECTION('',(0.0,-1.0,0.0));
#115=VECTOR('',#114,19.5);
#116=LINE('',#113,#115);
#117=EDGE_CURVE('',#112,#102,#116,.T.);
#118=ORIENTED_EDGE('',*,*,#117,.F.);
#119=CARTESIAN_POINT('',(10.25,9.75,0.0));
#120=VERTEX_POINT('',#119);
#121=CARTESIAN_POINT('',(10.249999999999998,9.75,0.0));
#122=DIRECTION('',(0.453990499739547,0.0,-0.891006524188368));
#123=VECTOR('',#122,2.244652475268723);
#124=LINE('',#121,#123);
#125=EDGE_CURVE('',#120,#112,#124,.T.);
#126=ORIENTED_EDGE('',*,*,#125,.F.);
#127=CARTESIAN_POINT('',(10.250000000000004,-9.750000000000002,2.775558E-016));
#128=DIRECTION('',(0.0,1.0,0.0));
#129=VECTOR('',#128,19.5);
#130=LINE('',#127,#129);
#131=EDGE_CURVE('',#104,#120,#130,.T.);
#132=ORIENTED_EDGE('',*,*,#131,.F.);
#133=EDGE_LOOP('',(#110,#118,#126,#132));
#134=FACE_OUTER_BOUND('',#133,.T.);
#135=ADVANCED_FACE('',(#134),#100,.F.);
#136=CARTESIAN_POINT('',(14.249999999999998,-12.75,0.0));
#137=DIRECTION('',(0.891006524188368,0.0,-0.453990499739547));
#138=DIRECTION('',(0.0,-1.0,0.0));
#139=AXIS2_PLACEMENT_3D('',#136,#137,#138);
#140=PLANE('',#139);
#141=CARTESIAN_POINT('',(14.250000000000004,-9.75,0.0));
#142=VERTEX_POINT('',#141);
#143=CARTESIAN_POINT('',(13.23094910101114,-9.749999999999998,-2.0));
#144=VERTEX_POINT('',#143);
#145=CARTESIAN_POINT('',(14.249999999999998,-9.75,2.664535E-015));
#146=DIRECTION('',(-0.453990499739547,0.0,-0.891006524188368));
#147=VECTOR('',#146,2.244652475268724);
#148=LINE('',#145,#147);
#149=EDGE_CURVE('',#142,#144,#148,.T.);
#150=ORIENTED_EDGE('',*,*,#149,.F.);
#151=CARTESIAN_POINT('',(14.249999999999998,9.75,0.0));
#152=VERTEX_POINT('',#151);
#153=CARTESIAN_POINT('',(14.249999999999996,9.75,5.551115E-016));
#154=DIRECTION('',(0.0,-1.0,0.0));
#155=VECTOR('',#154,19.5);
#156=LINE('',#153,#155);
#157=EDGE_CURVE('',#152,#142,#156,.T.);
#158=ORIENTED_EDGE('',*,*,#157,.F.);
#159=CARTESIAN_POINT('',(13.23094910101114,9.75,-2.0));
#160=VERTEX_POINT('',#159);
#161=CARTESIAN_POINT('',(13.23094910101114,9.75,-2.0));
#162=DIRECTION('',(0.453990499739546,0.0,0.891006524188368));
#163=VECTOR('',#162,2.244652475268721);
#164=LINE('',#161,#163);
#165=EDGE_CURVE('',#160,#152,#164,.T.);
#166=ORIENTED_EDGE('',*,*,#165,.F.);
#167=CARTESIAN_POINT('',(13.23094910101114,-9.749999999999998,-2.0));
#168=DIRECTION('',(0.0,1.0,0.0));
#169=VECTOR('',#168,19.5);
#170=LINE('',#167,#169);
#171=EDGE_CURVE('',#144,#160,#170,.T.);
#172=ORIENTED_EDGE('',*,*,#171,.F.);
#173=EDGE_LOOP('',(#150,#158,#166,#172));
#174=FACE_OUTER_BOUND('',#173,.T.);
#175=ADVANCED_FACE('',(#174),#140,.F.);
#176=CARTESIAN_POINT('',(12.250000000000004,1.875533E-015,-2.0));
#177=DIRECTION('',(0.0,0.0,1.0));
#178=DIRECTION('',(1.0,0.0,0.0));
#179=AXIS2_PLACEMENT_3D('',#176,#177,#178);
#180=PLANE('',#179);
#181=CARTESIAN_POINT('',(13.230949101011138,-9.75,-2.0));
#182=DIRECTION('',(-1.0,0.0,0.0));
#183=VECTOR('',#182,1.96189820202228);
#184=LINE('',#181,#183);
#185=EDGE_CURVE('',#144,#102,#184,.T.);
#186=ORIENTED_EDGE('',*,*,#185,.F.);
#187=ORIENTED_EDGE('',*,*,#171,.T.);
#188=CARTESIAN_POINT('',(11.269050898988857,9.75,-2.0));
#189=DIRECTION('',(1.0,0.0,0.0));
#190=VECTOR('',#189,1.961898202022283);
#191=LINE('',#188,#190);
#192=EDGE_CURVE('',#112,#160,#191,.T.);
#193=ORIENTED_EDGE('',*,*,#192,.F.);
#194=ORIENTED_EDGE('',*,*,#117,.T.);
#195=EDGE_LOOP('',(#186,#187,#193,#194));
#196=FACE_OUTER_BOUND('',#195,.T.);
#197=ADVANCED_FACE('',(#196),#180,.T.);
#198=CARTESIAN_POINT('',(-14.250000000000004,12.750000000000002,0.0));
#199=DIRECTION('',(-0.891006524188368,-1.551711E-016,-0.453990499739547));
#200=DIRECTION('',(0.0,1.0,0.0));
#201=AXIS2_PLACEMENT_3D('',#198,#199,#200);
#202=PLANE('',#201);
#203=CARTESIAN_POINT('',(-13.23094910101114,-9.75,-2.0));
#204=VERTEX_POINT('',#203);
#205=CARTESIAN_POINT('',(-14.249999999999998,-9.75,0.0));
#206=VERTEX_POINT('',#205);
#207=CARTESIAN_POINT('',(-13.230949101011138,-9.750000000000004,-2.0));
#208=DIRECTION('',(-0.453990499739547,0.0,0.891006524188368));
#209=VECTOR('',#208,2.244652475268723);
#210=LINE('',#207,#209);
#211=EDGE_CURVE('',#204,#206,#210,.T.);
#212=ORIENTED_EDGE('',*,*,#211,.F.);
#213=CARTESIAN_POINT('',(-13.230949101011145,9.749999999999998,-2.0));
#214=VERTEX_POINT('',#213);
#215=CARTESIAN_POINT('',(-13.230949101011143,9.749999999999998,-2.0));
#216=DIRECTION('',(0.0,-1.0,0.0));
#217=VECTOR('',#216,19.5);
#218=LINE('',#215,#217);
#219=EDGE_CURVE('',#214,#204,#218,.T.);
#220=ORIENTED_EDGE('',*,*,#219,.F.);
#221=CARTESIAN_POINT('',(-14.250000000000004,9.75,0.0));
#222=VERTEX_POINT('',#221);
#223=CARTESIAN_POINT('',(-14.25,9.75,8.881784E-016));
#224=DIRECTION('',(0.453990499739546,0.0,-0.891006524188368));
#225=VECTOR('',#224,2.244652475268721);
#226=LINE('',#223,#225);
#227=EDGE_CURVE('',#222,#214,#226,.T.);
#228=ORIENTED_EDGE('',*,*,#227,.F.);
#229=CARTESIAN_POINT('',(-14.249999999999996,-9.75,0.0));
#230=DIRECTION('',(0.0,1.0,0.0));
#231=VECTOR('',#230,19.5);
#232=LINE('',#229,#231);
#233=EDGE_CURVE('',#206,#222,#232,.T.);
#234=ORIENTED_EDGE('',*,*,#233,.F.);
#235=EDGE_LOOP('',(#212,#220,#228,#234));
#236=FACE_OUTER_BOUND('',#235,.T.);
#237=ADVANCED_FACE('',(#236),#202,.F.);
#238=CARTESIAN_POINT('',(-10.250000000000002,-12.750000000000002,0.0));
#239=DIRECTION('',(0.891006524188368,0.0,-0.453990499739547));
#240=DIRECTION('',(0.0,-1.0,0.0));
#241=AXIS2_PLACEMENT_3D('',#238,#239,#240);
#242=PLANE('',#241);
#243=CARTESIAN_POINT('',(-10.250000000000002,-9.749999999999998,0.0));
#244=VERTEX_POINT('',#243);
#245=CARTESIAN_POINT('',(-11.269050898988858,-9.749999999999998,-2.0));
#246=VERTEX_POINT('',#245);
#247=CARTESIAN_POINT('',(-10.25,-9.75,0.0));
#248=DIRECTION('',(-0.453990499739547,0.0,-0.891006524188368));
#249=VECTOR('',#248,2.244652475268723);
#250=LINE('',#247,#249);
#251=EDGE_CURVE('',#244,#246,#250,.T.);
#252=ORIENTED_EDGE('',*,*,#251,.F.);
#253=CARTESIAN_POINT('',(-10.250000000000002,9.75,0.0));
#254=VERTEX_POINT('',#253);
#255=CARTESIAN_POINT('',(-10.250000000000002,9.750000000000004,0.0));
#256=DIRECTION('',(0.0,-1.0,0.0));
#257=VECTOR('',#256,19.500000000000004);
#258=LINE('',#255,#257);
#259=EDGE_CURVE('',#254,#244,#258,.T.);
#260=ORIENTED_EDGE('',*,*,#259,.F.);
#261=CARTESIAN_POINT('',(-11.269050898988858,9.75,-2.0));
#262=VERTEX_POINT('',#261);
#263=CARTESIAN_POINT('',(-11.269050898988858,9.75,-2.000000000000002));
#264=DIRECTION('',(0.453990499739547,0.0,0.891006524188368));
#265=VECTOR('',#264,2.244652475268722);
#266=LINE('',#263,#265);
#267=EDGE_CURVE('',#262,#254,#266,.T.);
#268=ORIENTED_EDGE('',*,*,#267,.F.);
#269=CARTESIAN_POINT('',(-11.269050898988858,-9.749999999999998,-2.0));
#270=DIRECTION('',(0.0,1.0,0.0));
#271=VECTOR('',#270,19.5);
#272=LINE('',#269,#271);
#273=EDGE_CURVE('',#246,#262,#272,.T.);
#274=ORIENTED_EDGE('',*,*,#273,.F.);
#275=EDGE_LOOP('',(#252,#260,#268,#274));
#276=FACE_OUTER_BOUND('',#275,.T.);
#277=ADVANCED_FACE('',(#276),#242,.F.);
#278=CARTESIAN_POINT('',(-12.25,9.000248E-016,-2.0));
#279=DIRECTION('',(0.0,0.0,1.0));
#280=DIRECTION('',(1.0,0.0,0.0));
#281=AXIS2_PLACEMENT_3D('',#278,#279,#280);
#282=PLANE('',#281);
#283=CARTESIAN_POINT('',(-11.269050898988858,-9.75,-2.0));
#284=DIRECTION('',(-1.0,0.0,0.0));
#285=VECTOR('',#284,1.961898202022281);
#286=LINE('',#283,#285);
#287=EDGE_CURVE('',#246,#204,#286,.T.);
#288=ORIENTED_EDGE('',*,*,#287,.F.);
#289=ORIENTED_EDGE('',*,*,#273,.T.);
#290=CARTESIAN_POINT('',(-13.230949101011145,9.75,-2.0));
#291=DIRECTION('',(1.0,0.0,0.0));
#292=VECTOR('',#291,1.961898202022287);
#293=LINE('',#290,#292);
#294=EDGE_CURVE('',#214,#262,#293,.T.);
#295=ORIENTED_EDGE('',*,*,#294,.F.);
#296=ORIENTED_EDGE('',*,*,#219,.T.);
#297=EDGE_LOOP('',(#288,#289,#295,#296));
#298=FACE_OUTER_BOUND('',#297,.T.);
#299=ADVANCED_FACE('',(#298),#282,.T.);
#300=CARTESIAN_POINT('',(-9.714451E-016,4.857226E-016,0.0));
#301=DIRECTION('',(0.0,0.0,1.0));
#302=DIRECTION('',(1.0,0.0,0.0));
#303=AXIS2_PLACEMENT_3D('',#300,#301,#302);
#304=PLANE('',#303);
#305=ORIENTED_EDGE('',*,*,#233,.T.);
#306=CARTESIAN_POINT('',(-17.25,2.749999999999999,0.0));
#307=VERTEX_POINT('',#306);
#308=CARTESIAN_POINT('',(-0.285879959703954,-0.377480017269728,0.0));
#309=DIRECTION('',(0.0,0.0,1.0));
#310=DIRECTION('',(-0.80951420523456,0.587100290856221,0.0));
#311=AXIS2_PLACEMENT_3D('',#308,#309,#310);
#312=CIRCLE('',#311,17.249999999999869);
#313=EDGE_CURVE('',#222,#307,#312,.T.);
#314=ORIENTED_EDGE('',*,*,#313,.T.);
#315=CARTESIAN_POINT('',(-17.25,-9.75,0.0));
#316=VERTEX_POINT('',#315);
#317=CARTESIAN_POINT('',(-17.25,2.749999999999999,0.0));
#318=DIRECTION('',(0.0,-1.0,0.0));
#319=VECTOR('',#318,12.5);
#320=LINE('',#317,#319);
#321=EDGE_CURVE('',#307,#316,#320,.T.);
#322=ORIENTED_EDGE('',*,*,#321,.T.);
#323=CARTESIAN_POINT('',(-17.25,-9.75,0.0));
#324=DIRECTION('',(1.0,0.0,0.0));
#325=VECTOR('',#324,3.000000000000004);
#326=LINE('',#323,#325);
#327=EDGE_CURVE('',#316,#206,#326,.T.);
#328=ORIENTED_EDGE('',*,*,#327,.T.);
#329=EDGE_LOOP('',(#305,#314,#322,#328));
#330=FACE_OUTER_BOUND('',#329,.T.);
#331=ADVANCED_FACE('',(#330),#304,.T.);
#332=CARTESIAN_POINT('',(-9.714451E-016,4.857226E-016,0.0));
#333=DIRECTION('',(0.0,0.0,1.0));
#334=DIRECTION('',(1.0,0.0,0.0));
#335=AXIS2_PLACEMENT_3D('',#332,#333,#334);
#336=PLANE('',#335);
#337=ORIENTED_EDGE('',*,*,#157,.T.);
#338=CARTESIAN_POINT('',(17.25,-2.749999999999999,0.0));
#339=VERTEX_POINT('',#338);
#340=CARTESIAN_POINT('',(0.285879959703899,0.377480017269753,0.0));
#341=DIRECTION('',(0.0,0.0,1.0));
#342=DIRECTION('',(0.80951420523456,-0.58710029085622,0.0));
#343=AXIS2_PLACEMENT_3D('',#340,#341,#342);
#344=CIRCLE('',#343,17.249999999999922);
#345=EDGE_CURVE('',#142,#339,#344,.T.);
#346=ORIENTED_EDGE('',*,*,#345,.T.);
#347=CARTESIAN_POINT('',(17.25,9.75,0.0));
#348=VERTEX_POINT('',#347);
#349=CARTESIAN_POINT('',(17.25,-2.749999999999999,0.0));
#350=DIRECTION('',(0.0,1.0,0.0));
#351=VECTOR('',#350,12.5);
#352=LINE('',#349,#351);
#353=EDGE_CURVE('',#339,#348,#352,.T.);
#354=ORIENTED_EDGE('',*,*,#353,.T.);
#355=CARTESIAN_POINT('',(17.25,9.75,0.0));
#356=DIRECTION('',(-1.0,0.0,0.0));
#357=VECTOR('',#356,3.000000000000004);
#358=LINE('',#355,#357);
#359=EDGE_CURVE('',#348,#152,#358,.T.);
#360=ORIENTED_EDGE('',*,*,#359,.T.);
#361=EDGE_LOOP('',(#337,#346,#354,#360));
#362=FACE_OUTER_BOUND('',#361,.T.);
#363=ADVANCED_FACE('',(#362),#336,.T.);
#364=CARTESIAN_POINT('',(-9.714451E-016,4.857226E-016,0.0));
#365=DIRECTION('',(0.0,0.0,1.0));
#366=DIRECTION('',(1.0,0.0,0.0));
#367=AXIS2_PLACEMENT_3D('',#364,#365,#366);
#368=PLANE('',#367);
#369=ORIENTED_EDGE('',*,*,#131,.T.);
#370=CARTESIAN_POINT('',(10.249999999999998,9.75,0.0));
#371=DIRECTION('',(-1.0,0.0,0.0));
#372=VECTOR('',#371,20.5);
#373=LINE('',#370,#372);
#374=EDGE_CURVE('',#120,#254,#373,.T.);
#375=ORIENTED_EDGE('',*,*,#374,.T.);
#376=ORIENTED_EDGE('',*,*,#259,.T.);
#377=CARTESIAN_POINT('',(-10.25,-9.75,0.0));
#378=DIRECTION('',(1.0,0.0,0.0));
#379=VECTOR('',#378,20.500000000000004);
#380=LINE('',#377,#379);
#381=EDGE_CURVE('',#244,#104,#380,.T.);
#382=ORIENTED_EDGE('',*,*,#381,.T.);
#383=EDGE_LOOP('',(#369,#375,#376,#382));
#384=FACE_OUTER_BOUND('',#383,.T.);
#385=ORIENTED_EDGE('',*,*,#91,.T.);
#386=EDGE_LOOP('',(#385));
#387=FACE_BOUND('',#386,.T.);
#388=ADVANCED_FACE('',(#384,#387),#368,.T.);
#389=CARTESIAN_POINT('',(17.25,9.75,0.0));
#390=DIRECTION('',(0.0,1.0,0.0));
#391=DIRECTION('',(0.0,0.0,1.0));
#392=AXIS2_PLACEMENT_3D('',#389,#390,#391);
#393=PLANE('',#392);
#394=ORIENTED_EDGE('',*,*,#125,.T.);
#395=ORIENTED_EDGE('',*,*,#192,.T.);
#396=ORIENTED_EDGE('',*,*,#165,.T.);
#397=ORIENTED_EDGE('',*,*,#359,.F.);
#398=CARTESIAN_POINT('',(17.25,9.75,-8.0));
#399=VERTEX_POINT('',#398);
#400=CARTESIAN_POINT('',(17.25,9.75,0.0));
#401=DIRECTION('',(0.0,0.0,-1.0));
#402=VECTOR('',#401,8.0);
#403=LINE('',#400,#402);
#404=EDGE_CURVE('',#348,#399,#403,.T.);
#405=ORIENTED_EDGE('',*,*,#404,.T.);
#406=CARTESIAN_POINT('',(-14.250000000000004,9.75,-8.0));
#407=VERTEX_POINT('',#406);
#408=CARTESIAN_POINT('',(17.25,9.75,-8.0));
#409=DIRECTION('',(-1.0,0.0,0.0));
#410=VECTOR('',#409,31.500000000000004);
#411=LINE('',#408,#410);
#412=EDGE_CURVE('',#399,#407,#411,.T.);
#413=ORIENTED_EDGE('',*,*,#412,.T.);
#414=CARTESIAN_POINT('',(-14.250000000000004,9.75,0.0));
#415=DIRECTION('',(0.0,0.0,-1.0));
#416=VECTOR('',#415,8.0);
#417=LINE('',#414,#416);
#418=EDGE_CURVE('',#222,#407,#417,.T.);
#419=ORIENTED_EDGE('',*,*,#418,.F.);
#420=ORIENTED_EDGE('',*,*,#227,.T.);
#421=ORIENTED_EDGE('',*,*,#294,.T.);
#422=ORIENTED_EDGE('',*,*,#267,.T.);
#423=ORIENTED_EDGE('',*,*,#374,.F.);
#424=EDGE_LOOP('',(#394,#395,#396,#397,#405,#413,#419,#420,#421,#422,#423));
#425=FACE_OUTER_BOUND('',#424,.T.);
#426=ADVANCED_FACE('',(#425),#393,.T.);
#427=CARTESIAN_POINT('',(-17.25,-9.75,0.0));
#428=DIRECTION('',(0.0,-1.0,0.0));
#429=DIRECTION('',(0.0,0.0,-1.0));
#430=AXIS2_PLACEMENT_3D('',#427,#428,#429);
#431=PLANE('',#430);
#432=ORIENTED_EDGE('',*,*,#109,.T.);
#433=ORIENTED_EDGE('',*,*,#381,.F.);
#434=ORIENTED_EDGE('',*,*,#251,.T.);
#435=ORIENTED_EDGE('',*,*,#287,.T.);
#436=ORIENTED_EDGE('',*,*,#211,.T.);
#437=ORIENTED_EDGE('',*,*,#327,.F.);
#438=CARTESIAN_POINT('',(-17.25,-9.75,-8.0));
#439=VERTEX_POINT('',#438);
#440=CARTESIAN_POINT('',(-17.25,-9.75,0.0));
#441=DIRECTION('',(0.0,0.0,-1.0));
#442=VECTOR('',#441,8.0);
#443=LINE('',#440,#442);
#444=EDGE_CURVE('',#316,#439,#443,.T.);
#445=ORIENTED_EDGE('',*,*,#444,.T.);
#446=CARTESIAN_POINT('',(14.250000000000004,-9.75,-8.0));
#447=VERTEX_POINT('',#446);
#448=CARTESIAN_POINT('',(-17.25,-9.75,-8.0));
#449=DIRECTION('',(1.0,0.0,0.0));
#450=VECTOR('',#449,31.500000000000004);
#451=LINE('',#448,#450);
#452=EDGE_CURVE('',#439,#447,#451,.T.);
#453=ORIENTED_EDGE('',*,*,#452,.T.);
#454=CARTESIAN_POINT('',(14.250000000000004,-9.75,0.0));
#455=DIRECTION('',(0.0,0.0,-1.0));
#456=VECTOR('',#455,8.0);
#457=LINE('',#454,#456);
#458=EDGE_CURVE('',#142,#447,#457,.T.);
#459=ORIENTED_EDGE('',*,*,#458,.F.);
#460=ORIENTED_EDGE('',*,*,#149,.T.);
#461=ORIENTED_EDGE('',*,*,#185,.T.);
#462=EDGE_LOOP('',(#432,#433,#434,#435,#436,#437,#445,#453,#459,#460,#461));
#463=FACE_OUTER_BOUND('',#462,.T.);
#464=ADVANCED_FACE('',(#463),#431,.T.);
#465=CARTESIAN_POINT('',(0.285879959703899,0.377480017269753,0.0));
#466=DIRECTION('',(0.0,0.0,-1.0));
#467=DIRECTION('',(0.80951420523456,-0.58710029085622,0.0));
#468=AXIS2_PLACEMENT_3D('',#465,#466,#467);
#469=CYLINDRICAL_SURFACE('',#468,17.249999999999925);
#470=CARTESIAN_POINT('',(17.25,-2.749999999999999,-8.0));
#471=VERTEX_POINT('',#470);
#472=CARTESIAN_POINT('',(0.285879959703899,0.377480017269753,-8.0));
#473=DIRECTION('',(0.0,0.0,1.0));
#474=DIRECTION('',(0.80951420523456,-0.58710029085622,0.0));
#475=AXIS2_PLACEMENT_3D('',#472,#473,#474);
#476=CIRCLE('',#475,17.249999999999922);
#477=EDGE_CURVE('',#447,#471,#476,.T.);
#478=ORIENTED_EDGE('',*,*,#477,.T.);
#479=CARTESIAN_POINT('',(17.25,-2.749999999999999,0.0));
#480=DIRECTION('',(0.0,0.0,-1.0));
#481=VECTOR('',#480,8.0);
#482=LINE('',#479,#481);
#483=EDGE_CURVE('',#339,#471,#482,.T.);
#484=ORIENTED_EDGE('',*,*,#483,.F.);
#485=ORIENTED_EDGE('',*,*,#345,.F.);
#486=ORIENTED_EDGE('',*,*,#458,.T.);
#487=EDGE_LOOP('',(#478,#484,#485,#486));
#488=FACE_OUTER_BOUND('',#487,.T.);
#489=ADVANCED_FACE('',(#488),#469,.T.);
#490=CARTESIAN_POINT('',(17.25,-2.749999999999999,0.0));
#491=DIRECTION('',(1.0,0.0,0.0));
#492=DIRECTION('',(0.0,0.0,-1.0));
#493=AXIS2_PLACEMENT_3D('',#490,#491,#492);
#494=PLANE('',#493);
#495=CARTESIAN_POINT('',(17.25,-2.749999999999999,-8.0));
#496=DIRECTION('',(0.0,1.0,0.0));
#497=VECTOR('',#496,12.5);
#498=LINE('',#495,#497);
#499=EDGE_CURVE('',#471,#399,#498,.T.);
#500=ORIENTED_EDGE('',*,*,#499,.T.);
#501=ORIENTED_EDGE('',*,*,#404,.F.);
#502=ORIENTED_EDGE('',*,*,#353,.F.);
#503=ORIENTED_EDGE('',*,*,#483,.T.);
#504=EDGE_LOOP('',(#500,#501,#502,#503));
#505=FACE_OUTER_BOUND('',#504,.T.);
#506=ADVANCED_FACE('',(#505),#494,.T.);
#507=CARTESIAN_POINT('',(-0.285879959703954,-0.377480017269728,0.0));
#508=DIRECTION('',(0.0,0.0,-1.0));
#509=DIRECTION('',(-0.80951420523456,0.587100290856221,0.0));
#510=AXIS2_PLACEMENT_3D('',#507,#508,#509);
#511=CYLINDRICAL_SURFACE('',#510,17.249999999999872);
#512=CARTESIAN_POINT('',(-17.25,2.749999999999999,-8.0));
#513=VERTEX_POINT('',#512);
#514=CARTESIAN_POINT('',(-0.285879959703954,-0.377480017269728,-8.0));
#515=DIRECTION('',(0.0,0.0,1.0));
#516=DIRECTION('',(-0.80951420523456,0.587100290856221,0.0));
#517=AXIS2_PLACEMENT_3D('',#514,#515,#516);
#518=CIRCLE('',#517,17.249999999999869);
#519=EDGE_CURVE('',#407,#513,#518,.T.);
#520=ORIENTED_EDGE('',*,*,#519,.T.);
#521=CARTESIAN_POINT('',(-17.25,2.749999999999999,0.0));
#522=DIRECTION('',(0.0,0.0,-1.0));
#523=VECTOR('',#522,8.0);
#524=LINE('',#521,#523);
#525=EDGE_CURVE('',#307,#513,#524,.T.);
#526=ORIENTED_EDGE('',*,*,#525,.F.);
#527=ORIENTED_EDGE('',*,*,#313,.F.);
#528=ORIENTED_EDGE('',*,*,#418,.T.);
#529=EDGE_LOOP('',(#520,#526,#527,#528));
#530=FACE_OUTER_BOUND('',#529,.T.);
#531=ADVANCED_FACE('',(#530),#511,.T.);
#532=CARTESIAN_POINT('',(-17.25,2.749999999999999,0.0));
#533=DIRECTION('',(-1.0,0.0,0.0));
#534=DIRECTION('',(0.0,0.0,1.0));
#535=AXIS2_PLACEMENT_3D('',#532,#533,#534);
#536=PLANE('',#535);
#537=CARTESIAN_POINT('',(-17.25,2.749999999999999,-8.0));
#538=DIRECTION('',(0.0,-1.0,0.0));
#539=VECTOR('',#538,12.5);
#540=LINE('',#537,#539);
#541=EDGE_CURVE('',#513,#439,#540,.T.);
#542=ORIENTED_EDGE('',*,*,#541,.T.);
#543=ORIENTED_EDGE('',*,*,#444,.F.);
#544=ORIENTED_EDGE('',*,*,#321,.F.);
#545=ORIENTED_EDGE('',*,*,#525,.T.);
#546=EDGE_LOOP('',(#542,#543,#544,#545));
#547=FACE_OUTER_BOUND('',#546,.T.);
#548=ADVANCED_FACE('',(#547),#536,.T.);
#549=CARTESIAN_POINT('',(-7.632783E-016,5.551115E-016,-8.0));
#550=DIRECTION('',(0.0,0.0,1.0));
#551=DIRECTION('',(1.0,0.0,0.0));
#552=AXIS2_PLACEMENT_3D('',#549,#550,#551);
#553=PLANE('',#552);
#554=ORIENTED_EDGE('',*,*,#452,.F.);
#555=ORIENTED_EDGE('',*,*,#541,.F.);
#556=ORIENTED_EDGE('',*,*,#519,.F.);
#557=ORIENTED_EDGE('',*,*,#412,.F.);
#558=ORIENTED_EDGE('',*,*,#499,.F.);
#559=ORIENTED_EDGE('',*,*,#477,.F.);
#560=EDGE_LOOP('',(#554,#555,#556,#557,#558,#559));
#561=FACE_OUTER_BOUND('',#560,.T.);
#562=ORIENTED_EDGE('',*,*,#80,.T.);
#563=EDGE_LOOP('',(#562));
#564=FACE_BOUND('',#563,.T.);
#565=ADVANCED_FACE('',(#561,#564),#553,.F.);
#566=CLOSED_SHELL('',(#95,#135,#175,#197,#237,#277,#299,#331,#363,#388,#426,#464,#489,#506,#531,#548,#565));
#567=MANIFOLD_SOLID_BREP('Volumenk\S\vrper1',#566);
#568=COLOUR_RGB('',0.639216005802155,0.639216005802155,0.686275005340576);
#569=FILL_AREA_STYLE_COLOUR('',#568);
#570=FILL_AREA_STYLE('',(#569));
#571=SURFACE_STYLE_FILL_AREA(#570);
#572=SURFACE_SIDE_STYLE('',(#571));
#573=SURFACE_STYLE_USAGE(.BOTH.,#572);
#574=PRESENTATION_STYLE_ASSIGNMENT((#573));
#575=STYLED_ITEM('',(#574),#95);
#576=STYLED_ITEM('',(#574),#135);
#577=STYLED_ITEM('',(#574),#175);
#578=STYLED_ITEM('',(#574),#197);
#579=STYLED_ITEM('',(#574),#237);
#580=STYLED_ITEM('',(#574),#277);
#581=STYLED_ITEM('',(#574),#299);
#582=STYLED_ITEM('',(#574),#331);
#583=STYLED_ITEM('',(#574),#363);
#584=STYLED_ITEM('',(#574),#388);
#585=STYLED_ITEM('',(#574),#426);
#586=STYLED_ITEM('',(#574),#464);
#587=STYLED_ITEM('',(#574),#489);
#588=STYLED_ITEM('',(#574),#506);
#589=STYLED_ITEM('',(#574),#531);
#590=STYLED_ITEM('',(#574),#548);
#591=STYLED_ITEM('',(#574),#565);
#592=MECHANICAL_DESIGN_GEOMETRIC_PRESENTATION_REPRESENTATION('',(#575,#576,#577,#578,#579,#580,#581,#582,#583,#584,#585,#586,#587,#588,#589,#590,#591,#600),#67);
#593=COLOUR_RGB('Standard',0.752941012382507,0.752941012382507,0.752941012382507);
#594=FILL_AREA_STYLE_COLOUR('Standard',#593);
#595=FILL_AREA_STYLE('Standard',(#594));
#596=SURFACE_STYLE_FILL_AREA(#595);
#597=SURFACE_SIDE_STYLE('Standard',(#596));
#598=SURFACE_STYLE_USAGE(.BOTH.,#597);
#599=PRESENTATION_STYLE_ASSIGNMENT((#598));
#600=STYLED_ITEM('',(#599),#567);
#601=ADVANCED_BREP_SHAPE_REPRESENTATION('ABSR',(#567),#36);
#602=SHAPE_REPRESENTATION_RELATIONSHIP('SRR','None',#601,#41);
ENDSEC;
END-ISO-10303-21;
