ISO-10303-21;
HEADER;
/* Generated by software containing ST-Developer
 * from STEP Tools, Inc. (www.steptools.com) 
 */

FILE_DESCRIPTION(
/* description */ (''),
/* implementation_level */ '2;1');

FILE_NAME(
/* name */ 
'Q:\\Ric010\\FF7\\FIPlastiCAD\\FIP\\Lavoro\\PVC Fittings\\PVC Fittings
 STEP\\DIFV\\DIFV063050200.ipt.stp',
/* time_stamp */ '2013-10-01T14:36:55+02:00',
/* author */ ('bfaro'),
/* organization */ (''),
/* preprocessor_version */ 'ST-DEVELOPER v15.2',
/* originating_system */ 'Autodesk Inventor 2014',
/* authorisation */ '');

FILE_SCHEMA (('AUTOMOTIVE_DESIGN { 1 0 10303 214 3 1 1 }'));
ENDSEC;

DATA;
#10=SHAPE_REPRESENTATION_RELATIONSHIP('SRR','None',#544,#11);
#11=ADVANCED_BREP_SHAPE_REPRESENTATION($,(#321),#535);
#12=STYLED_ITEM($,(#553),#313);
#13=STYLED_ITEM($,(#552),#321);
#14=CYLINDRICAL_SURFACE($,#336,31.5);
#15=CYLINDRICAL_SURFACE($,#339,37.85);
#16=CYLINDRICAL_SURFACE($,#343,28.328);
#17=CYLINDRICAL_SURFACE($,#347,26.5);
#18=CYLINDRICAL_SURFACE($,#351,24.);
#19=CYLINDRICAL_SURFACE($,#355,25.);
#20=FACE_BOUND($,#67,.T.);
#21=FACE_BOUND($,#77,.T.);
#22=FACE_BOUND($,#79,.T.);
#23=FACE_BOUND($,#81,.T.);
#24=FACE_BOUND($,#83,.T.);
#25=FACE_BOUND($,#84,.T.);
#26=FACE_BOUND($,#85,.T.);
#27=FACE_BOUND($,#87,.T.);
#28=FACE_BOUND($,#88,.T.);
#29=FACE_BOUND($,#89,.T.);
#30=FACE_BOUND($,#91,.T.);
#31=FACE_BOUND($,#92,.T.);
#32=FACE_BOUND($,#93,.T.);
#33=FACE_BOUND($,#95,.T.);
#34=FACE_BOUND($,#97,.T.);
#35=FACE_BOUND($,#99,.T.);
#36=CIRCLE($,#324,37.85);
#37=CIRCLE($,#334,31.5);
#38=CIRCLE($,#335,25.);
#39=CIRCLE($,#337,31.5);
#40=CIRCLE($,#340,37.85);
#41=CIRCLE($,#342,28.328);
#42=CIRCLE($,#344,28.328);
#43=CIRCLE($,#346,26.5);
#44=CIRCLE($,#348,26.5);
#45=CIRCLE($,#350,24.);
#46=CIRCLE($,#352,24.);
#47=CIRCLE($,#354,25.);
#48=FACE_OUTER_BOUND($,#66,.T.);
#49=FACE_OUTER_BOUND($,#68,.T.);
#50=FACE_OUTER_BOUND($,#69,.T.);
#51=FACE_OUTER_BOUND($,#70,.T.);
#52=FACE_OUTER_BOUND($,#71,.T.);
#53=FACE_OUTER_BOUND($,#72,.T.);
#54=FACE_OUTER_BOUND($,#73,.T.);
#55=FACE_OUTER_BOUND($,#74,.T.);
#56=FACE_OUTER_BOUND($,#75,.T.);
#57=FACE_OUTER_BOUND($,#76,.T.);
#58=FACE_OUTER_BOUND($,#78,.T.);
#59=FACE_OUTER_BOUND($,#80,.T.);
#60=FACE_OUTER_BOUND($,#82,.T.);
#61=FACE_OUTER_BOUND($,#86,.T.);
#62=FACE_OUTER_BOUND($,#90,.T.);
#63=FACE_OUTER_BOUND($,#94,.T.);
#64=FACE_OUTER_BOUND($,#96,.T.);
#65=FACE_OUTER_BOUND($,#98,.T.);
#66=EDGE_LOOP($,(#212,#213,#214,#215,#216,#217,#218,#219));
#67=EDGE_LOOP($,(#220));
#68=EDGE_LOOP($,(#221,#222,#223,#224));
#69=EDGE_LOOP($,(#225,#226,#227,#228));
#70=EDGE_LOOP($,(#229,#230,#231,#232));
#71=EDGE_LOOP($,(#233,#234,#235,#236));
#72=EDGE_LOOP($,(#237,#238,#239,#240));
#73=EDGE_LOOP($,(#241,#242,#243,#244));
#74=EDGE_LOOP($,(#245,#246,#247,#248));
#75=EDGE_LOOP($,(#249,#250,#251,#252));
#76=EDGE_LOOP($,(#253));
#77=EDGE_LOOP($,(#254));
#78=EDGE_LOOP($,(#255));
#79=EDGE_LOOP($,(#256));
#80=EDGE_LOOP($,(#257,#258,#259,#260,#261,#262,#263,#264));
#81=EDGE_LOOP($,(#265));
#82=EDGE_LOOP($,(#266));
#83=EDGE_LOOP($,(#267));
#84=EDGE_LOOP($,(#268));
#85=EDGE_LOOP($,(#269));
#86=EDGE_LOOP($,(#270));
#87=EDGE_LOOP($,(#271));
#88=EDGE_LOOP($,(#272));
#89=EDGE_LOOP($,(#273));
#90=EDGE_LOOP($,(#274));
#91=EDGE_LOOP($,(#275));
#92=EDGE_LOOP($,(#276));
#93=EDGE_LOOP($,(#277));
#94=EDGE_LOOP($,(#278));
#95=EDGE_LOOP($,(#279));
#96=EDGE_LOOP($,(#280));
#97=EDGE_LOOP($,(#281));
#98=EDGE_LOOP($,(#282));
#99=EDGE_LOOP($,(#283));
#100=LINE($,#452,#124);
#101=LINE($,#454,#125);
#102=LINE($,#456,#126);
#103=LINE($,#458,#127);
#104=LINE($,#460,#128);
#105=LINE($,#462,#129);
#106=LINE($,#464,#130);
#107=LINE($,#465,#131);
#108=LINE($,#471,#132);
#109=LINE($,#472,#133);
#110=LINE($,#473,#134);
#111=LINE($,#476,#135);
#112=LINE($,#477,#136);
#113=LINE($,#480,#137);
#114=LINE($,#481,#138);
#115=LINE($,#484,#139);
#116=LINE($,#485,#140);
#117=LINE($,#488,#141);
#118=LINE($,#489,#142);
#119=LINE($,#492,#143);
#120=LINE($,#493,#144);
#121=LINE($,#496,#145);
#122=LINE($,#497,#146);
#123=LINE($,#499,#147);
#124=VECTOR($,#360,33.1370849898476);
#125=VECTOR($,#361,33.1370849898476);
#126=VECTOR($,#362,33.1370849898476);
#127=VECTOR($,#363,33.1370849898476);
#128=VECTOR($,#364,33.1370849898476);
#129=VECTOR($,#365,33.1370849898476);
#130=VECTOR($,#366,33.1370849898476);
#131=VECTOR($,#367,33.1370849898476);
#132=VECTOR($,#372,33.1370849898476);
#133=VECTOR($,#373,14.5);
#134=VECTOR($,#374,14.5);
#135=VECTOR($,#377,33.1370849898476);
#136=VECTOR($,#378,14.5);
#137=VECTOR($,#381,33.1370849898476);
#138=VECTOR($,#382,14.5);
#139=VECTOR($,#385,33.1370849898476);
#140=VECTOR($,#386,14.5);
#141=VECTOR($,#389,33.1370849898476);
#142=VECTOR($,#390,14.5);
#143=VECTOR($,#393,33.1370849898476);
#144=VECTOR($,#394,14.5);
#145=VECTOR($,#397,33.1370849898476);
#146=VECTOR($,#398,14.5);
#147=VECTOR($,#401,33.1370849898476);
#148=VERTEX_POINT($,#450);
#149=VERTEX_POINT($,#451);
#150=VERTEX_POINT($,#453);
#151=VERTEX_POINT($,#455);
#152=VERTEX_POINT($,#457);
#153=VERTEX_POINT($,#459);
#154=VERTEX_POINT($,#461);
#155=VERTEX_POINT($,#463);
#156=VERTEX_POINT($,#466);
#157=VERTEX_POINT($,#469);
#158=VERTEX_POINT($,#470);
#159=VERTEX_POINT($,#475);
#160=VERTEX_POINT($,#479);
#161=VERTEX_POINT($,#483);
#162=VERTEX_POINT($,#487);
#163=VERTEX_POINT($,#491);
#164=VERTEX_POINT($,#495);
#165=VERTEX_POINT($,#501);
#166=VERTEX_POINT($,#503);
#167=VERTEX_POINT($,#506);
#168=VERTEX_POINT($,#510);
#169=VERTEX_POINT($,#513);
#170=VERTEX_POINT($,#516);
#171=VERTEX_POINT($,#519);
#172=VERTEX_POINT($,#522);
#173=VERTEX_POINT($,#525);
#174=VERTEX_POINT($,#528);
#175=VERTEX_POINT($,#531);
#176=EDGE_CURVE($,#148,#149,#100,.T.);
#177=EDGE_CURVE($,#149,#150,#101,.T.);
#178=EDGE_CURVE($,#150,#151,#102,.T.);
#179=EDGE_CURVE($,#151,#152,#103,.T.);
#180=EDGE_CURVE($,#152,#153,#104,.T.);
#181=EDGE_CURVE($,#153,#154,#105,.T.);
#182=EDGE_CURVE($,#154,#155,#106,.T.);
#183=EDGE_CURVE($,#155,#148,#107,.T.);
#184=EDGE_CURVE($,#156,#156,#36,.T.);
#185=EDGE_CURVE($,#157,#158,#108,.T.);
#186=EDGE_CURVE($,#158,#148,#109,.T.);
#187=EDGE_CURVE($,#157,#155,#110,.T.);
#188=EDGE_CURVE($,#159,#157,#111,.T.);
#189=EDGE_CURVE($,#159,#154,#112,.T.);
#190=EDGE_CURVE($,#160,#159,#113,.T.);
#191=EDGE_CURVE($,#160,#153,#114,.T.);
#192=EDGE_CURVE($,#161,#160,#115,.T.);
#193=EDGE_CURVE($,#161,#152,#116,.T.);
#194=EDGE_CURVE($,#162,#161,#117,.T.);
#195=EDGE_CURVE($,#162,#151,#118,.T.);
#196=EDGE_CURVE($,#163,#162,#119,.T.);
#197=EDGE_CURVE($,#163,#150,#120,.T.);
#198=EDGE_CURVE($,#164,#163,#121,.T.);
#199=EDGE_CURVE($,#164,#149,#122,.T.);
#200=EDGE_CURVE($,#158,#164,#123,.T.);
#201=EDGE_CURVE($,#165,#165,#37,.T.);
#202=EDGE_CURVE($,#166,#166,#38,.T.);
#203=EDGE_CURVE($,#167,#167,#39,.T.);
#204=EDGE_CURVE($,#168,#168,#40,.T.);
#205=EDGE_CURVE($,#169,#169,#41,.T.);
#206=EDGE_CURVE($,#170,#170,#42,.T.);
#207=EDGE_CURVE($,#171,#171,#43,.T.);
#208=EDGE_CURVE($,#172,#172,#44,.T.);
#209=EDGE_CURVE($,#173,#173,#45,.T.);
#210=EDGE_CURVE($,#174,#174,#46,.T.);
#211=EDGE_CURVE($,#175,#175,#47,.T.);
#212=ORIENTED_EDGE($,*,*,#176,.T.);
#213=ORIENTED_EDGE($,*,*,#177,.T.);
#214=ORIENTED_EDGE($,*,*,#178,.T.);
#215=ORIENTED_EDGE($,*,*,#179,.T.);
#216=ORIENTED_EDGE($,*,*,#180,.T.);
#217=ORIENTED_EDGE($,*,*,#181,.T.);
#218=ORIENTED_EDGE($,*,*,#182,.T.);
#219=ORIENTED_EDGE($,*,*,#183,.T.);
#220=ORIENTED_EDGE($,*,*,#184,.F.);
#221=ORIENTED_EDGE($,*,*,#185,.T.);
#222=ORIENTED_EDGE($,*,*,#186,.T.);
#223=ORIENTED_EDGE($,*,*,#183,.F.);
#224=ORIENTED_EDGE($,*,*,#187,.F.);
#225=ORIENTED_EDGE($,*,*,#188,.T.);
#226=ORIENTED_EDGE($,*,*,#187,.T.);
#227=ORIENTED_EDGE($,*,*,#182,.F.);
#228=ORIENTED_EDGE($,*,*,#189,.F.);
#229=ORIENTED_EDGE($,*,*,#190,.T.);
#230=ORIENTED_EDGE($,*,*,#189,.T.);
#231=ORIENTED_EDGE($,*,*,#181,.F.);
#232=ORIENTED_EDGE($,*,*,#191,.F.);
#233=ORIENTED_EDGE($,*,*,#192,.T.);
#234=ORIENTED_EDGE($,*,*,#191,.T.);
#235=ORIENTED_EDGE($,*,*,#180,.F.);
#236=ORIENTED_EDGE($,*,*,#193,.F.);
#237=ORIENTED_EDGE($,*,*,#194,.T.);
#238=ORIENTED_EDGE($,*,*,#193,.T.);
#239=ORIENTED_EDGE($,*,*,#179,.F.);
#240=ORIENTED_EDGE($,*,*,#195,.F.);
#241=ORIENTED_EDGE($,*,*,#196,.T.);
#242=ORIENTED_EDGE($,*,*,#195,.T.);
#243=ORIENTED_EDGE($,*,*,#178,.F.);
#244=ORIENTED_EDGE($,*,*,#197,.F.);
#245=ORIENTED_EDGE($,*,*,#198,.T.);
#246=ORIENTED_EDGE($,*,*,#197,.T.);
#247=ORIENTED_EDGE($,*,*,#177,.F.);
#248=ORIENTED_EDGE($,*,*,#199,.F.);
#249=ORIENTED_EDGE($,*,*,#200,.T.);
#250=ORIENTED_EDGE($,*,*,#199,.T.);
#251=ORIENTED_EDGE($,*,*,#176,.F.);
#252=ORIENTED_EDGE($,*,*,#186,.F.);
#253=ORIENTED_EDGE($,*,*,#201,.F.);
#254=ORIENTED_EDGE($,*,*,#202,.T.);
#255=ORIENTED_EDGE($,*,*,#203,.F.);
#256=ORIENTED_EDGE($,*,*,#201,.T.);
#257=ORIENTED_EDGE($,*,*,#200,.F.);
#258=ORIENTED_EDGE($,*,*,#185,.F.);
#259=ORIENTED_EDGE($,*,*,#188,.F.);
#260=ORIENTED_EDGE($,*,*,#190,.F.);
#261=ORIENTED_EDGE($,*,*,#192,.F.);
#262=ORIENTED_EDGE($,*,*,#194,.F.);
#263=ORIENTED_EDGE($,*,*,#196,.F.);
#264=ORIENTED_EDGE($,*,*,#198,.F.);
#265=ORIENTED_EDGE($,*,*,#203,.T.);
#266=ORIENTED_EDGE($,*,*,#184,.T.);
#267=ORIENTED_EDGE($,*,*,#204,.F.);
#268=ORIENTED_EDGE($,*,*,#205,.F.);
#269=ORIENTED_EDGE($,*,*,#204,.T.);
#270=ORIENTED_EDGE($,*,*,#206,.F.);
#271=ORIENTED_EDGE($,*,*,#205,.T.);
#272=ORIENTED_EDGE($,*,*,#207,.F.);
#273=ORIENTED_EDGE($,*,*,#206,.T.);
#274=ORIENTED_EDGE($,*,*,#208,.F.);
#275=ORIENTED_EDGE($,*,*,#207,.T.);
#276=ORIENTED_EDGE($,*,*,#209,.F.);
#277=ORIENTED_EDGE($,*,*,#208,.T.);
#278=ORIENTED_EDGE($,*,*,#210,.F.);
#279=ORIENTED_EDGE($,*,*,#209,.T.);
#280=ORIENTED_EDGE($,*,*,#211,.F.);
#281=ORIENTED_EDGE($,*,*,#210,.T.);
#282=ORIENTED_EDGE($,*,*,#202,.F.);
#283=ORIENTED_EDGE($,*,*,#211,.T.);
#284=PLANE($,#323);
#285=PLANE($,#325);
#286=PLANE($,#326);
#287=PLANE($,#327);
#288=PLANE($,#328);
#289=PLANE($,#329);
#290=PLANE($,#330);
#291=PLANE($,#331);
#292=PLANE($,#332);
#293=PLANE($,#333);
#294=PLANE($,#338);
#295=PLANE($,#341);
#296=PLANE($,#345);
#297=PLANE($,#349);
#298=PLANE($,#353);
#299=ADVANCED_FACE($,(#48,#20),#284,.T.);
#300=ADVANCED_FACE($,(#49),#285,.T.);
#301=ADVANCED_FACE($,(#50),#286,.T.);
#302=ADVANCED_FACE($,(#51),#287,.T.);
#303=ADVANCED_FACE($,(#52),#288,.T.);
#304=ADVANCED_FACE($,(#53),#289,.T.);
#305=ADVANCED_FACE($,(#54),#290,.T.);
#306=ADVANCED_FACE($,(#55),#291,.T.);
#307=ADVANCED_FACE($,(#56),#292,.T.);
#308=ADVANCED_FACE($,(#57,#21),#293,.T.);
#309=ADVANCED_FACE($,(#58,#22),#14,.T.);
#310=ADVANCED_FACE($,(#59,#23),#294,.T.);
#311=ADVANCED_FACE($,(#60,#24),#15,.T.);
#312=ADVANCED_FACE($,(#25,#26),#295,.T.);
#313=ADVANCED_FACE($,(#61,#27),#16,.F.);
#314=ADVANCED_FACE($,(#28,#29),#296,.T.);
#315=ADVANCED_FACE($,(#62,#30),#17,.F.);
#316=ADVANCED_FACE($,(#31,#32),#297,.T.);
#317=ADVANCED_FACE($,(#63,#33),#18,.F.);
#318=ADVANCED_FACE($,(#64,#34),#298,.T.);
#319=ADVANCED_FACE($,(#65,#35),#19,.F.);
#320=CLOSED_SHELL($,(#299,#300,#301,#302,#303,#304,#305,#306,#307,#308,
#309,#310,#311,#312,#313,#314,#315,#316,#317,#318,#319));
#321=MANIFOLD_SOLID_BREP('Solido1',#320);
#322=AXIS2_PLACEMENT_3D('placement',#448,#356,#357);
#323=AXIS2_PLACEMENT_3D($,#449,#358,#359);
#324=AXIS2_PLACEMENT_3D($,#467,#368,#369);
#325=AXIS2_PLACEMENT_3D($,#468,#370,#371);
#326=AXIS2_PLACEMENT_3D($,#474,#375,#376);
#327=AXIS2_PLACEMENT_3D($,#478,#379,#380);
#328=AXIS2_PLACEMENT_3D($,#482,#383,#384);
#329=AXIS2_PLACEMENT_3D($,#486,#387,#388);
#330=AXIS2_PLACEMENT_3D($,#490,#391,#392);
#331=AXIS2_PLACEMENT_3D($,#494,#395,#396);
#332=AXIS2_PLACEMENT_3D($,#498,#399,#400);
#333=AXIS2_PLACEMENT_3D($,#500,#402,#403);
#334=AXIS2_PLACEMENT_3D($,#502,#404,#405);
#335=AXIS2_PLACEMENT_3D($,#504,#406,#407);
#336=AXIS2_PLACEMENT_3D($,#505,#408,#409);
#337=AXIS2_PLACEMENT_3D($,#507,#410,#411);
#338=AXIS2_PLACEMENT_3D($,#508,#412,#413);
#339=AXIS2_PLACEMENT_3D($,#509,#414,#415);
#340=AXIS2_PLACEMENT_3D($,#511,#416,#417);
#341=AXIS2_PLACEMENT_3D($,#512,#418,#419);
#342=AXIS2_PLACEMENT_3D($,#514,#420,#421);
#343=AXIS2_PLACEMENT_3D($,#515,#422,#423);
#344=AXIS2_PLACEMENT_3D($,#517,#424,#425);
#345=AXIS2_PLACEMENT_3D($,#518,#426,#427);
#346=AXIS2_PLACEMENT_3D($,#520,#428,#429);
#347=AXIS2_PLACEMENT_3D($,#521,#430,#431);
#348=AXIS2_PLACEMENT_3D($,#523,#432,#433);
#349=AXIS2_PLACEMENT_3D($,#524,#434,#435);
#350=AXIS2_PLACEMENT_3D($,#526,#436,#437);
#351=AXIS2_PLACEMENT_3D($,#527,#438,#439);
#352=AXIS2_PLACEMENT_3D($,#529,#440,#441);
#353=AXIS2_PLACEMENT_3D($,#530,#442,#443);
#354=AXIS2_PLACEMENT_3D($,#532,#444,#445);
#355=AXIS2_PLACEMENT_3D($,#533,#446,#447);
#356=DIRECTION('axis',(0.,0.,1.));
#357=DIRECTION('refdir',(1.,0.,0.));
#358=DIRECTION('center_axis',(0.,0.,1.));
#359=DIRECTION('ref_axis',(1.,0.,0.));
#360=DIRECTION($,(-0.923879532511287,-0.38268343236509,0.));
#361=DIRECTION($,(-0.382683432365089,-0.923879532511287,0.));
#362=DIRECTION($,(0.38268343236509,-0.923879532511287,0.));
#363=DIRECTION($,(0.923879532511287,-0.38268343236509,0.));
#364=DIRECTION($,(0.923879532511287,0.38268343236509,0.));
#365=DIRECTION($,(0.38268343236509,0.923879532511287,0.));
#366=DIRECTION($,(-0.38268343236509,0.923879532511287,0.));
#367=DIRECTION($,(-0.923879532511287,0.38268343236509,0.));
#368=DIRECTION('center_axis',(0.,0.,1.));
#369=DIRECTION('ref_axis',(0.,-1.,0.));
#370=DIRECTION('center_axis',(0.38268343236509,0.923879532511287,0.));
#371=DIRECTION('ref_axis',(-0.923879532511287,0.382683432365089,0.));
#372=DIRECTION($,(-0.923879532511287,0.38268343236509,0.));
#373=DIRECTION($,(0.,0.,1.));
#374=DIRECTION($,(0.,0.,1.));
#375=DIRECTION('center_axis',(0.923879532511287,0.38268343236509,0.));
#376=DIRECTION('ref_axis',(-0.382683432365089,0.923879532511287,0.));
#377=DIRECTION($,(-0.38268343236509,0.923879532511287,0.));
#378=DIRECTION($,(0.,0.,1.));
#379=DIRECTION('center_axis',(0.923879532511287,-0.38268343236509,0.));
#380=DIRECTION('ref_axis',(0.38268343236509,0.923879532511287,0.));
#381=DIRECTION($,(0.38268343236509,0.923879532511287,0.));
#382=DIRECTION($,(0.,0.,1.));
#383=DIRECTION('center_axis',(0.38268343236509,-0.923879532511287,0.));
#384=DIRECTION('ref_axis',(0.923879532511287,0.38268343236509,0.));
#385=DIRECTION($,(0.923879532511287,0.38268343236509,0.));
#386=DIRECTION($,(0.,0.,1.));
#387=DIRECTION('center_axis',(-0.38268343236509,-0.923879532511287,0.));
#388=DIRECTION('ref_axis',(0.923879532511287,-0.38268343236509,0.));
#389=DIRECTION($,(0.923879532511287,-0.38268343236509,0.));
#390=DIRECTION($,(0.,0.,1.));
#391=DIRECTION('center_axis',(-0.923879532511287,-0.38268343236509,0.));
#392=DIRECTION('ref_axis',(0.38268343236509,-0.923879532511287,0.));
#393=DIRECTION($,(0.38268343236509,-0.923879532511287,0.));
#394=DIRECTION($,(0.,0.,1.));
#395=DIRECTION('center_axis',(-0.923879532511287,0.382683432365089,0.));
#396=DIRECTION('ref_axis',(-0.382683432365089,-0.923879532511287,0.));
#397=DIRECTION($,(-0.382683432365089,-0.923879532511287,0.));
#398=DIRECTION($,(0.,0.,1.));
#399=DIRECTION('center_axis',(-0.38268343236509,0.923879532511287,0.));
#400=DIRECTION('ref_axis',(-0.923879532511287,-0.38268343236509,0.));
#401=DIRECTION($,(-0.923879532511287,-0.38268343236509,0.));
#402=DIRECTION('center_axis',(0.,0.,-1.));
#403=DIRECTION('ref_axis',(-1.,0.,0.));
#404=DIRECTION('center_axis',(0.,0.,1.));
#405=DIRECTION('ref_axis',(0.,-1.,0.));
#406=DIRECTION('center_axis',(0.,0.,1.));
#407=DIRECTION('ref_axis',(0.,-1.,0.));
#408=DIRECTION('center_axis',(0.,0.,1.));
#409=DIRECTION('ref_axis',(0.,-1.,0.));
#410=DIRECTION('center_axis',(0.,0.,1.));
#411=DIRECTION('ref_axis',(0.,-1.,0.));
#412=DIRECTION('center_axis',(0.,0.,-1.));
#413=DIRECTION('ref_axis',(-1.,0.,0.));
#414=DIRECTION('center_axis',(0.,0.,1.));
#415=DIRECTION('ref_axis',(0.,-1.,0.));
#416=DIRECTION('center_axis',(0.,0.,1.));
#417=DIRECTION('ref_axis',(0.,-1.,0.));
#418=DIRECTION('center_axis',(0.,0.,1.));
#419=DIRECTION('ref_axis',(1.,0.,0.));
#420=DIRECTION('center_axis',(0.,0.,1.));
#421=DIRECTION('ref_axis',(0.,-1.,0.));
#422=DIRECTION('center_axis',(0.,0.,1.));
#423=DIRECTION('ref_axis',(0.,-1.,0.));
#424=DIRECTION('center_axis',(0.,0.,1.));
#425=DIRECTION('ref_axis',(0.,-1.,0.));
#426=DIRECTION('center_axis',(0.,0.,1.));
#427=DIRECTION('ref_axis',(1.,0.,0.));
#428=DIRECTION('center_axis',(0.,0.,1.));
#429=DIRECTION('ref_axis',(0.,-1.,0.));
#430=DIRECTION('center_axis',(0.,0.,1.));
#431=DIRECTION('ref_axis',(0.,-1.,0.));
#432=DIRECTION('center_axis',(0.,0.,1.));
#433=DIRECTION('ref_axis',(0.,-1.,0.));
#434=DIRECTION('center_axis',(0.,0.,1.));
#435=DIRECTION('ref_axis',(1.,0.,0.));
#436=DIRECTION('center_axis',(0.,0.,1.));
#437=DIRECTION('ref_axis',(0.,-1.,0.));
#438=DIRECTION('center_axis',(0.,0.,1.));
#439=DIRECTION('ref_axis',(0.,-1.,0.));
#440=DIRECTION('center_axis',(0.,0.,1.));
#441=DIRECTION('ref_axis',(0.,-1.,0.));
#442=DIRECTION('center_axis',(0.,0.,-1.));
#443=DIRECTION('ref_axis',(-1.,0.,0.));
#444=DIRECTION('center_axis',(0.,0.,1.));
#445=DIRECTION('ref_axis',(0.,-1.,0.));
#446=DIRECTION('center_axis',(0.,0.,1.));
#447=DIRECTION('ref_axis',(0.,-1.,0.));
#448=CARTESIAN_POINT('',(0.,0.,0.));
#449=CARTESIAN_POINT('Origin',(7.28710772024616E-015,4.0204732249634E-015,
52.5));
#450=CARTESIAN_POINT('',(-7.73442437387225E-017,43.2956880116958,52.5));
#451=CARTESIAN_POINT('',(-30.6146745892072,30.6146745892072,52.5));
#452=CARTESIAN_POINT($,(-7.73442437387225E-017,43.2956880116958,52.5));
#453=CARTESIAN_POINT('',(-43.2956880116958,-8.88178419700125E-015,52.5));
#454=CARTESIAN_POINT($,(-30.6146745892072,30.6146745892072,52.5));
#455=CARTESIAN_POINT('',(-30.6146745892072,-30.6146745892072,52.5));
#456=CARTESIAN_POINT($,(-43.2956880116958,-1.13336955475684E-014,52.5));
#457=CARTESIAN_POINT('',(1.54126007253811E-014,-43.2956880116958,52.5));
#458=CARTESIAN_POINT($,(-30.6146745892072,-30.6146745892072,52.5));
#459=CARTESIAN_POINT('',(30.6146745892072,-30.6146745892072,52.5));
#460=CARTESIAN_POINT($,(1.54126007253811E-014,-43.2956880116958,52.5));
#461=CARTESIAN_POINT('',(43.2956880116958,0.,52.5));
#462=CARTESIAN_POINT($,(30.6146745892072,-30.6146745892072,52.5));
#463=CARTESIAN_POINT('',(30.6146745892072,30.6146745892072,52.5));
#464=CARTESIAN_POINT($,(43.2956880116958,3.20189663958962E-015,52.5));
#465=CARTESIAN_POINT($,(30.6146745892072,30.6146745892072,52.5));
#466=CARTESIAN_POINT('',(-4.63528813477273E-015,37.85,52.5));
#467=CARTESIAN_POINT('Origin',(0.,0.,52.5));
#468=CARTESIAN_POINT('Origin',(30.6146745892072,30.6146745892072,38.));
#469=CARTESIAN_POINT('',(30.6146745892072,30.6146745892072,38.));
#470=CARTESIAN_POINT('',(-7.73442437387225E-017,43.2956880116958,38.));
#471=CARTESIAN_POINT($,(30.6146745892072,30.6146745892072,38.));
#472=CARTESIAN_POINT($,(-7.73442437387225E-017,43.2956880116958,38.));
#473=CARTESIAN_POINT($,(30.6146745892072,30.6146745892072,38.));
#474=CARTESIAN_POINT('Origin',(43.2956880116958,3.20189663958962E-015,38.));
#475=CARTESIAN_POINT('',(43.2956880116958,3.20189663958962E-015,38.));
#476=CARTESIAN_POINT($,(43.2956880116958,3.20189663958962E-015,38.));
#477=CARTESIAN_POINT($,(43.2956880116958,3.20189663958962E-015,38.));
#478=CARTESIAN_POINT('Origin',(30.6146745892072,-30.6146745892072,38.));
#479=CARTESIAN_POINT('',(30.6146745892072,-30.6146745892072,38.));
#480=CARTESIAN_POINT($,(30.6146745892072,-30.6146745892072,38.));
#481=CARTESIAN_POINT($,(30.6146745892072,-30.6146745892072,38.));
#482=CARTESIAN_POINT('Origin',(1.54126007253811E-014,-43.2956880116958,
38.));
#483=CARTESIAN_POINT('',(1.54126007253811E-014,-43.2956880116958,38.));
#484=CARTESIAN_POINT($,(1.54126007253811E-014,-43.2956880116958,38.));
#485=CARTESIAN_POINT($,(1.54126007253811E-014,-43.2956880116958,38.));
#486=CARTESIAN_POINT('Origin',(-30.6146745892072,-30.6146745892072,38.));
#487=CARTESIAN_POINT('',(-30.6146745892072,-30.6146745892072,38.));
#488=CARTESIAN_POINT($,(-30.6146745892072,-30.6146745892072,38.));
#489=CARTESIAN_POINT($,(-30.6146745892072,-30.6146745892072,38.));
#490=CARTESIAN_POINT('Origin',(-43.2956880116958,-1.13336955475684E-014,
38.));
#491=CARTESIAN_POINT('',(-43.2956880116958,-1.13336955475684E-014,38.));
#492=CARTESIAN_POINT($,(-43.2956880116958,-1.13336955475684E-014,38.));
#493=CARTESIAN_POINT($,(-43.2956880116958,-1.13336955475684E-014,38.));
#494=CARTESIAN_POINT('Origin',(-30.6146745892072,30.6146745892072,38.));
#495=CARTESIAN_POINT('',(-30.6146745892072,30.6146745892072,38.));
#496=CARTESIAN_POINT($,(-30.6146745892072,30.6146745892072,38.));
#497=CARTESIAN_POINT($,(-30.6146745892072,30.6146745892072,38.));
#498=CARTESIAN_POINT('Origin',(-7.73442437387225E-017,43.2956880116958,
38.));
#499=CARTESIAN_POINT($,(-7.73442437387225E-017,43.2956880116958,38.));
#500=CARTESIAN_POINT('Origin',(0.,-28.25,0.));
#501=CARTESIAN_POINT('',(0.,-31.5,0.));
#502=CARTESIAN_POINT('Origin',(0.,0.,0.));
#503=CARTESIAN_POINT('',(0.,-25.,0.));
#504=CARTESIAN_POINT('Origin',(0.,0.,0.));
#505=CARTESIAN_POINT('Origin',(0.,0.,19.));
#506=CARTESIAN_POINT('',(0.,-31.5,38.));
#507=CARTESIAN_POINT('Origin',(0.,0.,38.));
#508=CARTESIAN_POINT('Origin',(0.,-34.675,38.));
#509=CARTESIAN_POINT('Origin',(0.,0.,61.75));
#510=CARTESIAN_POINT('',(0.,-37.85,85.5));
#511=CARTESIAN_POINT('Origin',(0.,0.,85.5));
#512=CARTESIAN_POINT('Origin',(0.,-33.089,85.5));
#513=CARTESIAN_POINT('',(0.,-28.328,85.5));
#514=CARTESIAN_POINT('Origin',(0.,0.,85.5));
#515=CARTESIAN_POINT('Origin',(0.,0.,66.5));
#516=CARTESIAN_POINT('',(0.,-28.328,47.5));
#517=CARTESIAN_POINT('Origin',(0.,0.,47.5));
#518=CARTESIAN_POINT('Origin',(0.,-27.414,47.5));
#519=CARTESIAN_POINT('',(0.,-26.5,47.5));
#520=CARTESIAN_POINT('Origin',(0.,0.,47.5));
#521=CARTESIAN_POINT('Origin',(0.,0.,46.25));
#522=CARTESIAN_POINT('',(0.,-26.5,45.));
#523=CARTESIAN_POINT('Origin',(0.,0.,45.));
#524=CARTESIAN_POINT('Origin',(0.,-25.25,45.));
#525=CARTESIAN_POINT('',(0.,-24.,45.));
#526=CARTESIAN_POINT('Origin',(0.,0.,45.));
#527=CARTESIAN_POINT('Origin',(0.,0.,38.1));
#528=CARTESIAN_POINT('',(0.,-24.,31.2));
#529=CARTESIAN_POINT('Origin',(0.,0.,31.2));
#530=CARTESIAN_POINT('Origin',(0.,-24.5,31.2));
#531=CARTESIAN_POINT('',(0.,-25.,31.2));
#532=CARTESIAN_POINT('Origin',(0.,0.,31.2));
#533=CARTESIAN_POINT('Origin',(0.,0.,15.6));
#534=UNCERTAINTY_MEASURE_WITH_UNIT(LENGTH_MEASURE(0.01),#536,
'DISTANCE_ACCURACY_VALUE',
'Maximum model space distance between geometric entities at asserted c
onnectivities');
#535=(
GEOMETRIC_REPRESENTATION_CONTEXT(3)
GLOBAL_UNCERTAINTY_ASSIGNED_CONTEXT((#534))
GLOBAL_UNIT_ASSIGNED_CONTEXT((#536,#539,#537))
REPRESENTATION_CONTEXT('','3D')
);
#536=(
LENGTH_UNIT()
NAMED_UNIT(*)
SI_UNIT(.MILLI.,.METRE.)
);
#537=(
NAMED_UNIT(*)
SI_UNIT($,.STERADIAN.)
SOLID_ANGLE_UNIT()
);
#538=DIMENSIONAL_EXPONENTS(0.,0.,0.,0.,0.,0.,0.);
#539=(
CONVERSION_BASED_UNIT('degree',#541)
NAMED_UNIT(#538)
PLANE_ANGLE_UNIT()
);
#540=(
NAMED_UNIT(*)
PLANE_ANGLE_UNIT()
SI_UNIT($,.RADIAN.)
);
#541=PLANE_ANGLE_MEASURE_WITH_UNIT(PLANE_ANGLE_MEASURE(0.01745329252),#540);
#542=SHAPE_DEFINITION_REPRESENTATION(#543,#544);
#543=PRODUCT_DEFINITION_SHAPE('',$,#546);
#544=SHAPE_REPRESENTATION('',(#322),#535);
#545=PRODUCT_DEFINITION_CONTEXT('3D Mechanical Parts',#549,'design');
#546=PRODUCT_DEFINITION('DIFV063050200','DIFV063050200',#547,#545);
#547=PRODUCT_DEFINITION_FORMATION('',$,#551);
#548=APPLICATION_PROTOCOL_DEFINITION('international standard',
'automotive_design',2009,#549);
#549=APPLICATION_CONTEXT(
'Core Data for Automotive Mechanical Design Process');
#550=PRODUCT_CONTEXT('3D Mechanical Parts',#549,'mechanical');
#551=PRODUCT('DIFV063050200','DIFV063050200',$,(#550));
#552=PRESENTATION_STYLE_ASSIGNMENT((#554));
#553=PRESENTATION_STYLE_ASSIGNMENT((#555));
#554=SURFACE_STYLE_USAGE(.BOTH.,#556);
#555=SURFACE_STYLE_USAGE(.BOTH.,#557);
#556=SURFACE_SIDE_STYLE($,(#558));
#557=SURFACE_SIDE_STYLE($,(#559));
#558=SURFACE_STYLE_FILL_AREA(#560);
#559=SURFACE_STYLE_FILL_AREA(#561);
#560=FILL_AREA_STYLE($,(#562));
#561=FILL_AREA_STYLE($,(#563));
#562=FILL_AREA_STYLE_COLOUR($,#564);
#563=FILL_AREA_STYLE_COLOUR($,#565);
#564=COLOUR_RGB('',0.509803921568627,0.509803921568627,0.588235294117647);
#565=COLOUR_RGB('',1.,0.,0.);
ENDSEC;
END-ISO-10303-21;
