ISO-10303-21;
HEADER;
/****************************************************************
 * Generated by software with PDElib inside                    *
 * PDElib Version v51a, created Wed 07/06/2011                  *
 * ITI Transcendata (http://www.transcendata.com/)              *
 ****************************************************************/
FILE_DESCRIPTION((''),'2;1');
FILE_NAME('V:\\Neue Zeichnungdateien ab Januar 2010\\Edelstahlprodukte\\Montagewinkel\\Step\\118789.stp','2011-10-18T10:04:52',('DMK009'),(''),'Autodesk Inventor 2012','Autodesk Inventor 2012','');
FILE_SCHEMA(('AUTOMOTIVE_DESIGN { 1 0 10303 214 1 1 1 1 }'));
ENDSEC;
DATA;
#5=APPLICATION_CONTEXT('automotive design');
#6=APPLICATION_PROTOCOL_DEFINITION('International Standard','automotive_design',2001,#5);
#7=PRODUCT_CONTEXT('',#5,'mechanical');
#8=PRODUCT('118789','118789',$,(#7));
#9=PRODUCT_RELATED_PRODUCT_CATEGORY('part',$,(#8));
#10=PRODUCT_DEFINITION_FORMATION('',$,#8);
#11=PRODUCT_DEFINITION_CONTEXT('part definition',#5,'design');
#12=PRODUCT_DEFINITION('',$,#10,#11);
#18=(NAMED_UNIT(*)PLANE_ANGLE_UNIT()SI_UNIT($,.RADIAN.));
#19=DIMENSIONAL_EXPONENTS(0.0,0.0,0.0,0.0,0.0,0.0,0.0);
#20=PLANE_ANGLE_MEASURE_WITH_UNIT(PLANE_ANGLE_MEASURE(0.0174532925),#18);
#24=(CONVERSION_BASED_UNIT('DEGREE',#20)NAMED_UNIT(#19)PLANE_ANGLE_UNIT());
#28=(NAMED_UNIT(*)SI_UNIT($,.STERADIAN.)SOLID_ANGLE_UNIT());
#32=(LENGTH_UNIT()NAMED_UNIT(*)SI_UNIT(.MILLI.,.METRE.));
#34=UNCERTAINTY_MEASURE_WITH_UNIT(LENGTH_MEASURE(0.01),#32,'DISTANCE_ACCURACY_VALUE','');
#36=(GEOMETRIC_REPRESENTATION_CONTEXT(3)GLOBAL_UNCERTAINTY_ASSIGNED_CONTEXT((#34))GLOBAL_UNIT_ASSIGNED_CONTEXT((#24,#28,#32))REPRESENTATION_CONTEXT('None','None'));
#37=AXIS2_PLACEMENT_3D('',#38,#39,#40);
#38=CARTESIAN_POINT('',(0.0,0.0,0.0));
#39=DIRECTION('',(0.0,0.0,1.0));
#40=DIRECTION('',(1.0,0.0,0.0));
#41=SHAPE_REPRESENTATION('',(#37),#36);
#42=PRODUCT_DEFINITION_SHAPE('','',#12);
#43=SHAPE_DEFINITION_REPRESENTATION(#42,#41);
#49=(NAMED_UNIT(*)PLANE_ANGLE_UNIT()SI_UNIT($,.RADIAN.));
#50=DIMENSIONAL_EXPONENTS(0.0,0.0,0.0,0.0,0.0,0.0,0.0);
#51=PLANE_ANGLE_MEASURE_WITH_UNIT(PLANE_ANGLE_MEASURE(0.0174532925),#49);
#55=(CONVERSION_BASED_UNIT('DEGREE',#51)NAMED_UNIT(#50)PLANE_ANGLE_UNIT());
#59=(NAMED_UNIT(*)SI_UNIT($,.STERADIAN.)SOLID_ANGLE_UNIT());
#63=(LENGTH_UNIT()NAMED_UNIT(*)SI_UNIT(.MILLI.,.METRE.));
#65=UNCERTAINTY_MEASURE_WITH_UNIT(LENGTH_MEASURE(0.000001),#63,'DISTANCE_ACCURACY_VALUE','');
#67=(GEOMETRIC_REPRESENTATION_CONTEXT(3)GLOBAL_UNCERTAINTY_ASSIGNED_CONTEXT((#65))GLOBAL_UNIT_ASSIGNED_CONTEXT((#55,#59,#63))REPRESENTATION_CONTEXT('','3D'));
#68=CARTESIAN_POINT('',(28.284271247461898,28.284271247461913,6.661338E-015));
#69=DIRECTION('',(0.707106781186548,-0.707106781186547,0.0));
#70=DIRECTION('',(0.642802025855896,0.642802025855897,0.416666666666666));
#71=AXIS2_PLACEMENT_3D('',#68,#69,#70);
#72=CYLINDRICAL_SURFACE('',#71,30.000000000000004);
#73=CARTESIAN_POINT('',(50.396759147884971,44.739904898392609,-12.5));
#74=VERTEX_POINT('',#73);
#75=CARTESIAN_POINT('',(50.396759147884971,44.739904898392609,12.5));
#76=VERTEX_POINT('',#75);
#77=CARTESIAN_POINT('',(31.112698372208087,25.455844122715725,6.661338E-015));
#78=DIRECTION('',(0.707106781186548,-0.707106781186547,0.0));
#79=DIRECTION('',(0.642802025855896,0.642802025855897,0.416666666666666));
#80=AXIS2_PLACEMENT_3D('',#77,#78,#79);
#81=CIRCLE('',#80,30.000000000000004);
#82=EDGE_CURVE('',#74,#76,#81,.T.);
#83=ORIENTED_EDGE('',*,*,#82,.F.);
#84=CARTESIAN_POINT('',(47.56833202313878,47.568332023138808,-12.5));
#85=VERTEX_POINT('',#84);
#86=CARTESIAN_POINT('',(47.568332023138787,47.568332023138815,-12.5));
#87=DIRECTION('',(0.707106781186548,-0.707106781186548,0.0));
#88=VECTOR('',#87,4.000000000000002);
#89=LINE('',#86,#88);
#90=EDGE_CURVE('',#85,#74,#89,.T.);
#91=ORIENTED_EDGE('',*,*,#90,.F.);
#92=CARTESIAN_POINT('',(47.56833202313878,47.568332023138808,12.5));
#93=VERTEX_POINT('',#92);
#94=CARTESIAN_POINT('',(28.284271247461895,28.284271247461916,6.661338E-015));
#95=DIRECTION('',(-0.707106781186548,0.707106781186547,0.0));
#96=DIRECTION('',(0.642802025855896,0.642802025855897,0.416666666666666));
#97=AXIS2_PLACEMENT_3D('',#94,#95,#96);
#98=CIRCLE('',#97,30.000000000000004);
#99=EDGE_CURVE('',#93,#85,#98,.T.);
#100=ORIENTED_EDGE('',*,*,#99,.F.);
#101=CARTESIAN_POINT('',(50.396759147884985,44.739904898392631,12.5));
#102=DIRECTION('',(-0.707106781186548,0.707106781186548,0.0));
#103=VECTOR('',#102,4.000000000000002);
#104=LINE('',#101,#103);
#105=EDGE_CURVE('',#76,#93,#104,.T.);
#106=ORIENTED_EDGE('',*,*,#105,.F.);
#107=EDGE_LOOP('',(#83,#91,#100,#106));
#108=FACE_OUTER_BOUND('',#107,.T.);
#109=ADVANCED_FACE('',(#108),#72,.T.);
#110=CARTESIAN_POINT('',(-10.923553996807421,-10.923553996807431,-5.551115E-016));
#111=DIRECTION('',(0.707106781186548,-0.707106781186547,-4.400968E-033));
#112=DIRECTION('',(0.0,0.0,-1.0));
#113=AXIS2_PLACEMENT_3D('',#110,#111,#112);
#114=PLANE('',#113);
#115=ORIENTED_EDGE('',*,*,#99,.T.);
#116=CARTESIAN_POINT('',(2.343145750507619,2.343145750507613,-12.5));
#117=VERTEX_POINT('',#116);
#118=CARTESIAN_POINT('',(2.343145750507619,2.343145750507613,-12.5));
#119=DIRECTION('',(0.707106781186547,0.707106781186548,0.0));
#120=VECTOR('',#119,63.958071787604531);
#121=LINE('',#118,#120);
#122=EDGE_CURVE('',#117,#85,#121,.T.);
#123=ORIENTED_EDGE('',*,*,#122,.F.);
#124=CARTESIAN_POINT('',(2.34314575050762,2.343145750507615,12.5));
#125=VERTEX_POINT('',#124);
#126=CARTESIAN_POINT('',(2.343145750507615,2.343145750507617,-12.5));
#127=DIRECTION('',(0.0,0.0,1.0));
#128=VECTOR('',#127,25.0);
#129=LINE('',#126,#128);
#130=EDGE_CURVE('',#117,#125,#129,.T.);
#131=ORIENTED_EDGE('',*,*,#130,.T.);
#132=CARTESIAN_POINT('',(47.568332023138808,47.568332023138822,12.5));
#133=DIRECTION('',(-0.707106781186547,-0.707106781186548,0.0));
#134=VECTOR('',#133,63.958071787604553);
#135=LINE('',#132,#134);
#136=EDGE_CURVE('',#93,#125,#135,.T.);
#137=ORIENTED_EDGE('',*,*,#136,.F.);
#138=EDGE_LOOP('',(#115,#123,#131,#137));
#139=FACE_OUTER_BOUND('',#138,.T.);
#140=CARTESIAN_POINT('',(36.592775926403846,36.592775926403846,3.463662E-017));
#141=VERTEX_POINT('',#140);
#142=CARTESIAN_POINT('',(39.597979746446669,39.597979746446669,5.551115E-016));
#143=DIRECTION('',(0.707106781186548,-0.707106781186547,-4.400968E-033));
#144=DIRECTION('',(0.707106781186547,0.707106781186548,0.0));
#145=AXIS2_PLACEMENT_3D('',#142,#143,#144);
#146=CIRCLE('',#145,4.25);
#147=EDGE_CURVE('',#141,#141,#146,.T.);
#148=ORIENTED_EDGE('',*,*,#147,.T.);
#149=EDGE_LOOP('',(#148));
#150=FACE_BOUND('',#149,.T.);
#151=CARTESIAN_POINT('',(8.308504678941965,8.308504678941928,3.463662E-017));
#152=VERTEX_POINT('',#151);
#153=CARTESIAN_POINT('',(11.313708498984791,11.313708498984756,5.551115E-016));
#154=DIRECTION('',(0.707106781186548,-0.707106781186547,-4.400968E-033));
#155=DIRECTION('',(0.707106781186547,0.707106781186548,0.0));
#156=AXIS2_PLACEMENT_3D('',#153,#154,#155);
#157=CIRCLE('',#156,4.25);
#158=EDGE_CURVE('',#152,#152,#157,.T.);
#159=ORIENTED_EDGE('',*,*,#158,.T.);
#160=EDGE_LOOP('',(#159));
#161=FACE_BOUND('',#160,.T.);
#162=ADVANCED_FACE('',(#139,#150,#161),#114,.F.);
#163=CARTESIAN_POINT('',(5.171572875253809,-0.485281374238577,-12.5));
#164=DIRECTION('',(0.0,0.0,-1.0));
#165=DIRECTION('',(-0.707106781186548,0.707106781186547,0.0));
#166=AXIS2_PLACEMENT_3D('',#163,#164,#165);
#167=PLANE('',#166);
#168=ORIENTED_EDGE('',*,*,#90,.T.);
#169=CARTESIAN_POINT('',(5.171572875253812,-0.485281374238574,-12.5));
#170=VERTEX_POINT('',#169);
#171=CARTESIAN_POINT('',(5.17157287525383,-0.485281374238568,-12.5));
#172=DIRECTION('',(0.707106781186547,0.707106781186548,0.0));
#173=VECTOR('',#172,63.958071787604531);
#174=LINE('',#171,#173);
#175=EDGE_CURVE('',#170,#74,#174,.T.);
#176=ORIENTED_EDGE('',*,*,#175,.F.);
#177=CARTESIAN_POINT('',(5.171572875253809,-0.485281374238577,-12.5));
#178=DIRECTION('',(-0.707106781186548,0.707106781186547,0.0));
#179=VECTOR('',#178,4.0);
#180=LINE('',#177,#179);
#181=EDGE_CURVE('',#170,#117,#180,.T.);
#182=ORIENTED_EDGE('',*,*,#181,.T.);
#183=ORIENTED_EDGE('',*,*,#122,.T.);
#184=EDGE_LOOP('',(#168,#176,#182,#183));
#185=FACE_OUTER_BOUND('',#184,.T.);
#186=ADVANCED_FACE('',(#185),#167,.T.);
#187=CARTESIAN_POINT('',(-4.629791E-016,-73.0,0.0));
#188=DIRECTION('',(1.0,0.0,0.0));
#189=DIRECTION('',(0.0,-0.90905934288631,-0.416666666666667));
#190=AXIS2_PLACEMENT_3D('',#187,#188,#189);
#191=CYLINDRICAL_SURFACE('',#190,29.999999999999993);
#192=CARTESIAN_POINT('',(4.000000000000002,-100.27178028658929,12.5));
#193=VERTEX_POINT('',#192);
#194=CARTESIAN_POINT('',(4.000000000000002,-100.27178028658929,-12.5));
#195=VERTEX_POINT('',#194);
#196=CARTESIAN_POINT('',(3.999999999999997,-73.0,0.0));
#197=DIRECTION('',(1.0,0.0,0.0));
#198=DIRECTION('',(0.0,-0.90905934288631,-0.416666666666667));
#199=AXIS2_PLACEMENT_3D('',#196,#197,#198);
#200=CIRCLE('',#199,29.999999999999993);
#201=EDGE_CURVE('',#193,#195,#200,.T.);
#202=ORIENTED_EDGE('',*,*,#201,.F.);
#203=CARTESIAN_POINT('',(9.474717E-016,-100.27178028658929,12.5));
#204=VERTEX_POINT('',#203);
#205=CARTESIAN_POINT('',(9.474717E-016,-100.27178028658929,12.5));
#206=DIRECTION('',(1.0,0.0,0.0));
#207=VECTOR('',#206,4.0);
#208=LINE('',#205,#207);
#209=EDGE_CURVE('',#204,#193,#208,.T.);
#210=ORIENTED_EDGE('',*,*,#209,.F.);
#211=CARTESIAN_POINT('',(9.474717E-016,-100.27178028658929,-12.5));
#212=VERTEX_POINT('',#211);
#213=CARTESIAN_POINT('',(-3.330669E-015,-73.0,0.0));
#214=DIRECTION('',(-1.0,0.0,0.0));
#215=DIRECTION('',(0.0,-0.90905934288631,-0.416666666666667));
#216=AXIS2_PLACEMENT_3D('',#213,#214,#215);
#217=CIRCLE('',#216,29.999999999999993);
#218=EDGE_CURVE('',#212,#204,#217,.T.);
#219=ORIENTED_EDGE('',*,*,#218,.F.);
#220=CARTESIAN_POINT('',(4.000000000000001,-100.27178028658929,-12.5));
#221=DIRECTION('',(-1.0,0.0,0.0));
#222=VECTOR('',#221,4.0);
#223=LINE('',#220,#222);
#224=EDGE_CURVE('',#195,#212,#223,.T.);
#225=ORIENTED_EDGE('',*,*,#224,.F.);
#226=EDGE_LOOP('',(#202,#210,#219,#225));
#227=FACE_OUTER_BOUND('',#226,.T.);
#228=ADVANCED_FACE('',(#227),#191,.T.);
#229=CARTESIAN_POINT('',(4.000000000000001,1.210184922184536,-12.5));
#230=DIRECTION('',(0.0,0.0,-1.0));
#231=DIRECTION('',(-1.0,0.0,0.0));
#232=AXIS2_PLACEMENT_3D('',#229,#230,#231);
#233=PLANE('',#232);
#234=ORIENTED_EDGE('',*,*,#224,.T.);
#235=CARTESIAN_POINT('',(1.057365E-015,-3.313708498984766,-12.5));
#236=VERTEX_POINT('',#235);
#237=CARTESIAN_POINT('',(1.182187E-014,-100.27178028658929,-12.5));
#238=DIRECTION('',(0.0,1.0,0.0));
#239=VECTOR('',#238,96.958071787604524);
#240=LINE('',#237,#239);
#241=EDGE_CURVE('',#212,#236,#240,.T.);
#242=ORIENTED_EDGE('',*,*,#241,.T.);
#243=CARTESIAN_POINT('',(4.0,-3.313708498984767,-12.5));
#244=VERTEX_POINT('',#243);
#245=CARTESIAN_POINT('',(4.0,-3.313708498984766,-12.5));
#246=DIRECTION('',(-1.0,0.0,0.0));
#247=VECTOR('',#246,3.999999999999999);
#248=LINE('',#245,#247);
#249=EDGE_CURVE('',#244,#236,#248,.T.);
#250=ORIENTED_EDGE('',*,*,#249,.F.);
#251=CARTESIAN_POINT('',(4.0,-100.27178028658928,-12.5));
#252=DIRECTION('',(0.0,1.0,0.0));
#253=VECTOR('',#252,96.95807178760451);
#254=LINE('',#251,#253);
#255=EDGE_CURVE('',#195,#244,#254,.T.);
#256=ORIENTED_EDGE('',*,*,#255,.F.);
#257=EDGE_LOOP('',(#234,#242,#250,#256));
#258=FACE_OUTER_BOUND('',#257,.T.);
#259=ADVANCED_FACE('',(#258),#233,.T.);
#260=CARTESIAN_POINT('',(-3.330669E-015,-17.551761788400107,-5.551115E-016));
#261=DIRECTION('',(1.0,0.0,0.0));
#262=DIRECTION('',(0.0,0.0,-1.0));
#263=AXIS2_PLACEMENT_3D('',#260,#261,#262);
#264=PLANE('',#263);
#265=ORIENTED_EDGE('',*,*,#218,.T.);
#266=CARTESIAN_POINT('',(0.0,-3.313708498984767,12.5));
#267=VERTEX_POINT('',#266);
#268=CARTESIAN_POINT('',(0.0,-3.313708498984767,12.5));
#269=DIRECTION('',(0.0,-1.0,0.0));
#270=VECTOR('',#269,96.95807178760451);
#271=LINE('',#268,#270);
#272=EDGE_CURVE('',#267,#204,#271,.T.);
#273=ORIENTED_EDGE('',*,*,#272,.F.);
#274=CARTESIAN_POINT('',(-4.024558E-015,-3.313708498984767,-12.5));
#275=DIRECTION('',(0.0,0.0,1.0));
#276=VECTOR('',#275,25.0);
#277=LINE('',#274,#276);
#278=EDGE_CURVE('',#236,#267,#277,.T.);
#279=ORIENTED_EDGE('',*,*,#278,.F.);
#280=ORIENTED_EDGE('',*,*,#241,.F.);
#281=EDGE_LOOP('',(#265,#273,#279,#280));
#282=FACE_OUTER_BOUND('',#281,.T.);
#283=CARTESIAN_POINT('',(2.198029E-016,-93.250000000000028,3.463662E-017));
#284=VERTEX_POINT('',#283);
#285=CARTESIAN_POINT('',(0.0,-89.000000000000028,5.551115E-016));
#286=DIRECTION('',(1.0,0.0,0.0));
#287=DIRECTION('',(0.0,1.0,0.0));
#288=AXIS2_PLACEMENT_3D('',#285,#286,#287);
#289=CIRCLE('',#288,4.25);
#290=EDGE_CURVE('',#284,#284,#289,.T.);
#291=ORIENTED_EDGE('',*,*,#290,.T.);
#292=EDGE_LOOP('',(#291));
#293=FACE_BOUND('',#292,.T.);
#294=CARTESIAN_POINT('',(2.198029E-016,-53.250000000000014,3.463662E-017));
#295=VERTEX_POINT('',#294);
#296=CARTESIAN_POINT('',(0.0,-49.000000000000014,5.551115E-016));
#297=DIRECTION('',(1.0,0.0,0.0));
#298=DIRECTION('',(0.0,1.0,0.0));
#299=AXIS2_PLACEMENT_3D('',#296,#297,#298);
#300=CIRCLE('',#299,4.25);
#301=EDGE_CURVE('',#295,#295,#300,.T.);
#302=ORIENTED_EDGE('',*,*,#301,.T.);
#303=EDGE_LOOP('',(#302));
#304=FACE_BOUND('',#303,.T.);
#305=ADVANCED_FACE('',(#282,#293,#304),#264,.F.);
#306=CARTESIAN_POINT('',(-101.22354338157382,123.8509603795433,5.551115E-016));
#307=DIRECTION('',(0.707106781186548,-0.707106781186547,4.400968E-033));
#308=DIRECTION('',(0.707106781186547,0.707106781186548,0.0));
#309=AXIS2_PLACEMENT_3D('',#306,#307,#308);
#310=CYLINDRICAL_SURFACE('',#309,4.25);
#311=ORIENTED_EDGE('',*,*,#158,.F.);
#312=EDGE_LOOP('',(#311));
#313=FACE_OUTER_BOUND('',#312,.T.);
#314=CARTESIAN_POINT('',(17.147339443773788,11.490485194281412,5.551115E-016));
#315=VERTEX_POINT('',#314);
#316=CARTESIAN_POINT('',(14.142135623730976,8.485281374238571,5.551115E-016));
#317=DIRECTION('',(-0.707106781186548,0.707106781186547,-4.400968E-033));
#318=DIRECTION('',(0.707106781186547,0.707106781186548,0.0));
#319=AXIS2_PLACEMENT_3D('',#316,#317,#318);
#320=CIRCLE('',#319,4.25);
#321=EDGE_CURVE('',#315,#315,#320,.T.);
#322=ORIENTED_EDGE('',*,*,#321,.F.);
#323=EDGE_LOOP('',(#322));
#324=FACE_BOUND('',#323,.T.);
#325=ADVANCED_FACE('',(#313,#324),#310,.F.);
#326=CARTESIAN_POINT('',(-72.939272134111931,152.1352316270052,5.551115E-016));
#327=DIRECTION('',(0.707106781186548,-0.707106781186547,4.400968E-033));
#328=DIRECTION('',(0.707106781186547,0.707106781186548,0.0));
#329=AXIS2_PLACEMENT_3D('',#326,#327,#328);
#330=CYLINDRICAL_SURFACE('',#329,4.25);
#331=ORIENTED_EDGE('',*,*,#147,.F.);
#332=EDGE_LOOP('',(#331));
#333=FACE_OUTER_BOUND('',#332,.T.);
#334=CARTESIAN_POINT('',(45.43161069123569,39.774756441743321,5.551115E-016));
#335=VERTEX_POINT('',#334);
#336=CARTESIAN_POINT('',(42.426406871192874,36.76955262170047,5.551115E-016));
#337=DIRECTION('',(-0.707106781186548,0.707106781186547,-4.400968E-033));
#338=DIRECTION('',(0.707106781186547,0.707106781186548,0.0));
#339=AXIS2_PLACEMENT_3D('',#336,#337,#338);
#340=CIRCLE('',#339,4.25);
#341=EDGE_CURVE('',#335,#335,#340,.T.);
#342=ORIENTED_EDGE('',*,*,#341,.F.);
#343=EDGE_LOOP('',(#342));
#344=FACE_BOUND('',#343,.T.);
#345=ADVANCED_FACE('',(#333,#344),#330,.F.);
#346=CARTESIAN_POINT('',(-159.151707881683,-49.000000000000021,5.551115E-016));
#347=DIRECTION('',(1.0,5.171832E-017,4.400968E-033));
#348=DIRECTION('',(0.0,1.0,0.0));
#349=AXIS2_PLACEMENT_3D('',#346,#347,#348);
#350=CYLINDRICAL_SURFACE('',#349,4.25);
#351=ORIENTED_EDGE('',*,*,#301,.F.);
#352=EDGE_LOOP('',(#351));
#353=FACE_OUTER_BOUND('',#352,.T.);
#354=CARTESIAN_POINT('',(3.999999999999999,-44.750000000000014,5.551115E-016));
#355=VERTEX_POINT('',#354);
#356=CARTESIAN_POINT('',(4.000000000000004,-49.000000000000014,5.551115E-016));
#357=DIRECTION('',(-1.0,0.0,0.0));
#358=DIRECTION('',(0.0,1.0,0.0));
#359=AXIS2_PLACEMENT_3D('',#356,#357,#358);
#360=CIRCLE('',#359,4.25);
#361=EDGE_CURVE('',#355,#355,#360,.T.);
#362=ORIENTED_EDGE('',*,*,#361,.F.);
#363=EDGE_LOOP('',(#362));
#364=FACE_BOUND('',#363,.T.);
#365=ADVANCED_FACE('',(#353,#364),#350,.F.);
#366=CARTESIAN_POINT('',(-159.151707881683,-89.000000000000028,5.551115E-016));
#367=DIRECTION('',(1.0,5.171832E-017,4.400968E-033));
#368=DIRECTION('',(0.0,1.0,0.0));
#369=AXIS2_PLACEMENT_3D('',#366,#367,#368);
#370=CYLINDRICAL_SURFACE('',#369,4.25);
#371=ORIENTED_EDGE('',*,*,#290,.F.);
#372=EDGE_LOOP('',(#371));
#373=FACE_OUTER_BOUND('',#372,.T.);
#374=CARTESIAN_POINT('',(4.000000000000001,-84.750000000000014,5.551115E-016));
#375=VERTEX_POINT('',#374);
#376=CARTESIAN_POINT('',(4.000000000000004,-89.000000000000028,5.551115E-016));
#377=DIRECTION('',(-1.0,0.0,0.0));
#378=DIRECTION('',(0.0,1.0,0.0));
#379=AXIS2_PLACEMENT_3D('',#376,#377,#378);
#380=CIRCLE('',#379,4.25);
#381=EDGE_CURVE('',#375,#375,#380,.T.);
#382=ORIENTED_EDGE('',*,*,#381,.F.);
#383=EDGE_LOOP('',(#382));
#384=FACE_BOUND('',#383,.T.);
#385=ADVANCED_FACE('',(#373,#384),#370,.F.);
#386=CARTESIAN_POINT('',(8.0,-3.313708498984766,12.5));
#387=DIRECTION('',(0.0,0.0,-1.0));
#388=DIRECTION('',(-0.707106781186547,0.707106781186548,0.0));
#389=AXIS2_PLACEMENT_3D('',#386,#387,#388);
#390=CYLINDRICAL_SURFACE('',#389,4.000000000000005);
#391=CARTESIAN_POINT('',(5.171572875253812,-0.485281374238574,12.5));
#392=VERTEX_POINT('',#391);
#393=CARTESIAN_POINT('',(5.171572875253807,-0.485281374238573,12.5));
#394=DIRECTION('',(0.0,0.0,-1.0));
#395=VECTOR('',#394,25.0);
#396=LINE('',#393,#395);
#397=EDGE_CURVE('',#392,#170,#396,.T.);
#398=ORIENTED_EDGE('',*,*,#397,.F.);
#399=CARTESIAN_POINT('',(4.0,-3.313708498984767,12.5));
#400=VERTEX_POINT('',#399);
#401=CARTESIAN_POINT('',(8.0,-3.313708498984766,12.5));
#402=DIRECTION('',(0.0,0.0,-1.0));
#403=DIRECTION('',(-1.0,0.0,0.0));
#404=AXIS2_PLACEMENT_3D('',#401,#402,#403);
#405=CIRCLE('',#404,4.0);
#406=EDGE_CURVE('',#400,#392,#405,.T.);
#407=ORIENTED_EDGE('',*,*,#406,.F.);
#408=CARTESIAN_POINT('',(3.999999999999996,-3.313708498984767,12.5));
#409=DIRECTION('',(0.0,0.0,-1.0));
#410=VECTOR('',#409,25.0);
#411=LINE('',#408,#410);
#412=EDGE_CURVE('',#400,#244,#411,.T.);
#413=ORIENTED_EDGE('',*,*,#412,.T.);
#414=CARTESIAN_POINT('',(8.0,-3.313708498984766,-12.5));
#415=DIRECTION('',(0.0,0.0,-1.0));
#416=DIRECTION('',(-1.0,0.0,0.0));
#417=AXIS2_PLACEMENT_3D('',#414,#415,#416);
#418=CIRCLE('',#417,4.0);
#419=EDGE_CURVE('',#244,#170,#418,.T.);
#420=ORIENTED_EDGE('',*,*,#419,.T.);
#421=EDGE_LOOP('',(#398,#407,#413,#420));
#422=FACE_OUTER_BOUND('',#421,.T.);
#423=ADVANCED_FACE('',(#422),#390,.F.);
#424=CARTESIAN_POINT('',(2.343145750507621,2.343145750507615,12.5));
#425=DIRECTION('',(0.0,0.0,1.0));
#426=DIRECTION('',(1.0,0.0,0.0));
#427=AXIS2_PLACEMENT_3D('',#424,#425,#426);
#428=PLANE('',#427);
#429=CARTESIAN_POINT('',(2.343145750507618,2.343145750507613,12.5));
#430=DIRECTION('',(0.707106781186548,-0.707106781186547,0.0));
#431=VECTOR('',#430,4.0);
#432=LINE('',#429,#431);
#433=EDGE_CURVE('',#125,#392,#432,.T.);
#434=ORIENTED_EDGE('',*,*,#433,.F.);
#435=CARTESIAN_POINT('',(8.0,-3.313708498984766,12.5));
#436=DIRECTION('',(0.0,0.0,1.0));
#437=DIRECTION('',(-0.707106781186547,0.707106781186548,0.0));
#438=AXIS2_PLACEMENT_3D('',#435,#436,#437);
#439=CIRCLE('',#438,8.0);
#440=EDGE_CURVE('',#125,#267,#439,.T.);
#441=ORIENTED_EDGE('',*,*,#440,.T.);
#442=CARTESIAN_POINT('',(0.0,-3.313708498984767,12.5));
#443=DIRECTION('',(1.0,0.0,0.0));
#444=VECTOR('',#443,4.0);
#445=LINE('',#442,#444);
#446=EDGE_CURVE('',#267,#400,#445,.T.);
#447=ORIENTED_EDGE('',*,*,#446,.T.);
#448=ORIENTED_EDGE('',*,*,#406,.T.);
#449=EDGE_LOOP('',(#434,#441,#447,#448));
#450=FACE_OUTER_BOUND('',#449,.T.);
#451=ADVANCED_FACE('',(#450),#428,.T.);
#452=CARTESIAN_POINT('',(1.972697159779786,-3.684157089712601,12.5));
#453=DIRECTION('',(0.0,0.0,1.0));
#454=DIRECTION('',(0.707106781186548,-0.707106781186547,0.0));
#455=AXIS2_PLACEMENT_3D('',#452,#453,#454);
#456=PLANE('',#455);
#457=ORIENTED_EDGE('',*,*,#105,.T.);
#458=ORIENTED_EDGE('',*,*,#136,.T.);
#459=ORIENTED_EDGE('',*,*,#433,.T.);
#460=CARTESIAN_POINT('',(5.17157287525383,-0.485281374238568,12.5));
#461=DIRECTION('',(0.707106781186547,0.707106781186548,0.0));
#462=VECTOR('',#461,63.958071787604531);
#463=LINE('',#460,#462);
#464=EDGE_CURVE('',#392,#76,#463,.T.);
#465=ORIENTED_EDGE('',*,*,#464,.T.);
#466=EDGE_LOOP('',(#457,#458,#459,#465));
#467=FACE_OUTER_BOUND('',#466,.T.);
#468=ADVANCED_FACE('',(#467),#456,.T.);
#469=CARTESIAN_POINT('',(-8.095126872061231,-13.751981121553619,5.551115E-016));
#470=DIRECTION('',(0.707106781186548,-0.707106781186547,4.400968E-033));
#471=DIRECTION('',(0.0,0.0,-1.0));
#472=AXIS2_PLACEMENT_3D('',#469,#470,#471);
#473=PLANE('',#472);
#474=ORIENTED_EDGE('',*,*,#82,.T.);
#475=ORIENTED_EDGE('',*,*,#464,.F.);
#476=ORIENTED_EDGE('',*,*,#397,.T.);
#477=ORIENTED_EDGE('',*,*,#175,.T.);
#478=EDGE_LOOP('',(#474,#475,#476,#477));
#479=FACE_OUTER_BOUND('',#478,.T.);
#480=ORIENTED_EDGE('',*,*,#321,.T.);
#481=EDGE_LOOP('',(#480));
#482=FACE_BOUND('',#481,.T.);
#483=ORIENTED_EDGE('',*,*,#341,.T.);
#484=EDGE_LOOP('',(#483));
#485=FACE_BOUND('',#484,.T.);
#486=ADVANCED_FACE('',(#479,#482,#485),#473,.T.);
#487=CARTESIAN_POINT('',(4.0,-3.313708498984767,12.5));
#488=DIRECTION('',(0.0,0.0,1.0));
#489=DIRECTION('',(1.0,0.0,0.0));
#490=AXIS2_PLACEMENT_3D('',#487,#488,#489);
#491=PLANE('',#490);
#492=ORIENTED_EDGE('',*,*,#209,.T.);
#493=CARTESIAN_POINT('',(4.0,-100.27178028658928,12.5));
#494=DIRECTION('',(0.0,1.0,0.0));
#495=VECTOR('',#494,96.95807178760451);
#496=LINE('',#493,#495);
#497=EDGE_CURVE('',#193,#400,#496,.T.);
#498=ORIENTED_EDGE('',*,*,#497,.T.);
#499=ORIENTED_EDGE('',*,*,#446,.F.);
#500=ORIENTED_EDGE('',*,*,#272,.T.);
#501=EDGE_LOOP('',(#492,#498,#499,#500));
#502=FACE_OUTER_BOUND('',#501,.T.);
#503=ADVANCED_FACE('',(#502),#491,.T.);
#504=CARTESIAN_POINT('',(5.171572875253812,-0.485281374238575,-12.5));
#505=DIRECTION('',(0.0,0.0,-1.0));
#506=DIRECTION('',(-1.0,0.0,0.0));
#507=AXIS2_PLACEMENT_3D('',#504,#505,#506);
#508=PLANE('',#507);
#509=ORIENTED_EDGE('',*,*,#181,.F.);
#510=ORIENTED_EDGE('',*,*,#419,.F.);
#511=ORIENTED_EDGE('',*,*,#249,.T.);
#512=CARTESIAN_POINT('',(8.0,-3.313708498984766,-12.5));
#513=DIRECTION('',(0.0,0.0,-1.0));
#514=DIRECTION('',(-1.0,0.0,0.0));
#515=AXIS2_PLACEMENT_3D('',#512,#513,#514);
#516=CIRCLE('',#515,7.999999999999999);
#517=EDGE_CURVE('',#236,#117,#516,.T.);
#518=ORIENTED_EDGE('',*,*,#517,.T.);
#519=EDGE_LOOP('',(#509,#510,#511,#518));
#520=FACE_OUTER_BOUND('',#519,.T.);
#521=ADVANCED_FACE('',(#520),#508,.T.);
#522=CARTESIAN_POINT('',(8.0,-3.313708498984766,-12.5));
#523=DIRECTION('',(0.0,0.0,-1.0));
#524=DIRECTION('',(-0.707106781186548,0.707106781186547,0.0));
#525=AXIS2_PLACEMENT_3D('',#522,#523,#524);
#526=CYLINDRICAL_SURFACE('',#525,8.000000000000005);
#527=ORIENTED_EDGE('',*,*,#130,.F.);
#528=ORIENTED_EDGE('',*,*,#517,.F.);
#529=ORIENTED_EDGE('',*,*,#278,.T.);
#530=ORIENTED_EDGE('',*,*,#440,.F.);
#531=EDGE_LOOP('',(#527,#528,#529,#530));
#532=FACE_OUTER_BOUND('',#531,.T.);
#533=ADVANCED_FACE('',(#532),#526,.T.);
#534=CARTESIAN_POINT('',(3.999999999999997,-17.551761788400107,5.551115E-016));
#535=DIRECTION('',(1.0,0.0,0.0));
#536=DIRECTION('',(0.0,0.0,-1.0));
#537=AXIS2_PLACEMENT_3D('',#534,#535,#536);
#538=PLANE('',#537);
#539=ORIENTED_EDGE('',*,*,#201,.T.);
#540=ORIENTED_EDGE('',*,*,#255,.T.);
#541=ORIENTED_EDGE('',*,*,#412,.F.);
#542=ORIENTED_EDGE('',*,*,#497,.F.);
#543=EDGE_LOOP('',(#539,#540,#541,#542));
#544=FACE_OUTER_BOUND('',#543,.T.);
#545=ORIENTED_EDGE('',*,*,#361,.T.);
#546=EDGE_LOOP('',(#545));
#547=FACE_BOUND('',#546,.T.);
#548=ORIENTED_EDGE('',*,*,#381,.T.);
#549=EDGE_LOOP('',(#548));
#550=FACE_BOUND('',#549,.T.);
#551=ADVANCED_FACE('',(#544,#547,#550),#538,.T.);
#552=CLOSED_SHELL('',(#109,#162,#186,#228,#259,#305,#325,#345,#365,#385,#423,#451,#468,#486,#503,#521,#533,#551));
#553=MANIFOLD_SOLID_BREP('Volumenk\S\vrper1',#552);
#554=COLOUR_RGB('Standard',0.752941012382507,0.752941012382507,0.752941012382507);
#555=FILL_AREA_STYLE_COLOUR('Standard',#554);
#556=FILL_AREA_STYLE('Standard',(#555));
#557=SURFACE_STYLE_FILL_AREA(#556);
#558=SURFACE_SIDE_STYLE('Standard',(#557));
#559=SURFACE_STYLE_USAGE(.BOTH.,#558);
#560=PRESENTATION_STYLE_ASSIGNMENT((#559));
#561=STYLED_ITEM('',(#560),#553);
#562=MECHANICAL_DESIGN_GEOMETRIC_PRESENTATION_REPRESENTATION('',(#561),#36);
#563=ADVANCED_BREP_SHAPE_REPRESENTATION('ABSR',(#553),#36);
#564=SHAPE_REPRESENTATION_RELATIONSHIP('SRR','None',#563,#41);
ENDSEC;
END-ISO-10303-21;
