ISO-10303-21;
HEADER;
FILE_DESCRIPTION( ( '' ), '1' );
FILE_NAME( '//se01002/users/anro/AGRU_25705031511_PE_100_schwarz_Rohr__5m_315X28_6__SDR11__ISO_S-5_05.stp', '2017-12-11T09:37:06', ( '' ), ( '' ), ' ', ' ', ' ' );
FILE_SCHEMA( ( 'automotive_design' ) );
ENDSEC;
DATA;
#1 = MECHANICAL_DESIGN_GEOMETRIC_PRESENTATION_REPRESENTATION( ' ', ( #10, #11, #12, #13, #14, #15, #16, #17, #18, #19, #20, #21, #22, #23, #24, #25, #26, #27, #28, #29, #30, #31, #32, #33, #34, #35, #36 ), #6 );
#2 = PRODUCT_DEFINITION_CONTEXT( '', #37, 'design' );
#3 = APPLICATION_PROTOCOL_DEFINITION( 'INTERNATIONAL STANDARD', 'automotive_design', 1994, #37 );
#4 = PRODUCT_CATEGORY_RELATIONSHIP( 'NONE', 'NONE', #38, #39 );
#5 = SHAPE_DEFINITION_REPRESENTATION( #40, #41 );
#6 =  ( GEOMETRIC_REPRESENTATION_CONTEXT( 3 )GLOBAL_UNCERTAINTY_ASSIGNED_CONTEXT( ( #44 ) )GLOBAL_UNIT_ASSIGNED_CONTEXT( ( #46, #47, #48 ) )REPRESENTATION_CONTEXT( 'NONE', 'WORKSPACE' ) );
#10 = STYLED_ITEM( '', ( #50 ), #51 );
#11 = STYLED_ITEM( '', ( #52 ), #53 );
#12 = STYLED_ITEM( '', ( #54 ), #55 );
#13 = STYLED_ITEM( '', ( #56 ), #57 );
#14 = STYLED_ITEM( '', ( #58 ), #59 );
#15 = STYLED_ITEM( '', ( #60 ), #61 );
#16 = STYLED_ITEM( '', ( #62 ), #63 );
#17 = STYLED_ITEM( '', ( #64 ), #65 );
#18 = STYLED_ITEM( '', ( #66 ), #67 );
#19 = STYLED_ITEM( '', ( #68 ), #69 );
#20 = STYLED_ITEM( '', ( #70 ), #71 );
#21 = STYLED_ITEM( '', ( #72 ), #73 );
#22 = STYLED_ITEM( '', ( #74 ), #75 );
#23 = STYLED_ITEM( '', ( #76 ), #77 );
#24 = STYLED_ITEM( '', ( #78 ), #79 );
#25 = STYLED_ITEM( '', ( #80 ), #81 );
#26 = STYLED_ITEM( '', ( #82 ), #83 );
#27 = STYLED_ITEM( '', ( #84 ), #85 );
#28 = STYLED_ITEM( '', ( #86 ), #87 );
#29 = STYLED_ITEM( '', ( #88 ), #89 );
#30 = STYLED_ITEM( '', ( #90 ), #91 );
#31 = STYLED_ITEM( '', ( #92 ), #93 );
#32 = STYLED_ITEM( '', ( #94 ), #95 );
#33 = STYLED_ITEM( '', ( #96 ), #97 );
#34 = STYLED_ITEM( '', ( #98 ), #99 );
#35 = STYLED_ITEM( '', ( #100 ), #101 );
#36 = STYLED_ITEM( '', ( #102 ), #103 );
#37 = APPLICATION_CONTEXT( ' ' );
#38 = PRODUCT_CATEGORY( 'part', 'NONE' );
#39 = PRODUCT_RELATED_PRODUCT_CATEGORY( 'detail', ' ', ( #104 ) );
#40 = PRODUCT_DEFINITION_SHAPE( 'NONE', 'NONE', #105 );
#41 = ADVANCED_BREP_SHAPE_REPRESENTATION( '1', ( #87, #106 ), #6 );
#44 = UNCERTAINTY_MEASURE_WITH_UNIT( LENGTH_MEASURE( 1.00000000000000E-006 ), #46, '', '' );
#46 =  ( CONVERSION_BASED_UNIT( 'MILLIMETRE', #109 )LENGTH_UNIT(  )NAMED_UNIT( #112 ) );
#47 =  ( NAMED_UNIT( #114 )PLANE_ANGLE_UNIT(  )SI_UNIT( $, .RADIAN. ) );
#48 =  ( NAMED_UNIT( #114 )SOLID_ANGLE_UNIT(  )SI_UNIT( $, .STERADIAN. ) );
#50 = PRESENTATION_STYLE_ASSIGNMENT( ( #120 ) );
#51 = ADVANCED_FACE( '', ( #121, #122 ), #123, .T. );
#52 = PRESENTATION_STYLE_ASSIGNMENT( ( #124 ) );
#53 = VERTEX_POINT( '', #125 );
#54 = PRESENTATION_STYLE_ASSIGNMENT( ( #126 ) );
#55 = EDGE_CURVE( '', #59, #53, #127, .T. );
#56 = PRESENTATION_STYLE_ASSIGNMENT( ( #128 ) );
#57 = EDGE_CURVE( '', #77, #79, #129, .T. );
#58 = PRESENTATION_STYLE_ASSIGNMENT( ( #130 ) );
#59 = VERTEX_POINT( '', #131 );
#60 = PRESENTATION_STYLE_ASSIGNMENT( ( #132 ) );
#61 = EDGE_CURVE( '', #59, #79, #133, .T. );
#62 = PRESENTATION_STYLE_ASSIGNMENT( ( #134 ) );
#63 = EDGE_CURVE( '', #71, #81, #135, .T. );
#64 = PRESENTATION_STYLE_ASSIGNMENT( ( #136 ) );
#65 = VERTEX_POINT( '', #137 );
#66 = PRESENTATION_STYLE_ASSIGNMENT( ( #138 ) );
#67 = EDGE_CURVE( '', #79, #59, #139, .T. );
#68 = PRESENTATION_STYLE_ASSIGNMENT( ( #140 ) );
#69 = EDGE_CURVE( '', #77, #53, #141, .T. );
#70 = PRESENTATION_STYLE_ASSIGNMENT( ( #142 ) );
#71 = VERTEX_POINT( '', #143 );
#72 = PRESENTATION_STYLE_ASSIGNMENT( ( #144 ) );
#73 = EDGE_CURVE( '', #81, #71, #145, .T. );
#74 = PRESENTATION_STYLE_ASSIGNMENT( ( #146 ) );
#75 = EDGE_CURVE( '', #89, #65, #147, .T. );
#76 = PRESENTATION_STYLE_ASSIGNMENT( ( #148 ) );
#77 = VERTEX_POINT( '', #149 );
#78 = PRESENTATION_STYLE_ASSIGNMENT( ( #150 ) );
#79 = VERTEX_POINT( '', #151 );
#80 = PRESENTATION_STYLE_ASSIGNMENT( ( #152 ) );
#81 = VERTEX_POINT( '', #153 );
#82 = PRESENTATION_STYLE_ASSIGNMENT( ( #154 ) );
#83 = EDGE_CURVE( '', #71, #89, #155, .T. );
#84 = PRESENTATION_STYLE_ASSIGNMENT( ( #156 ) );
#85 = EDGE_CURVE( '', #65, #81, #157, .T. );
#86 = PRESENTATION_STYLE_ASSIGNMENT( ( #158 ) );
#87 = MANIFOLD_SOLID_BREP( '1', #159 );
#88 = PRESENTATION_STYLE_ASSIGNMENT( ( #160 ) );
#89 = VERTEX_POINT( '', #161 );
#90 = PRESENTATION_STYLE_ASSIGNMENT( ( #162 ) );
#91 = ADVANCED_FACE( '', ( #163 ), #164, .F. );
#92 = PRESENTATION_STYLE_ASSIGNMENT( ( #165 ) );
#93 = EDGE_CURVE( '', #53, #77, #166, .T. );
#94 = PRESENTATION_STYLE_ASSIGNMENT( ( #167 ) );
#95 = ADVANCED_FACE( '', ( #168 ), #169, .T. );
#96 = PRESENTATION_STYLE_ASSIGNMENT( ( #170 ) );
#97 = ADVANCED_FACE( '', ( #171 ), #172, .F. );
#98 = PRESENTATION_STYLE_ASSIGNMENT( ( #173 ) );
#99 = EDGE_CURVE( '', #65, #89, #174, .T. );
#100 = PRESENTATION_STYLE_ASSIGNMENT( ( #175 ) );
#101 = ADVANCED_FACE( '', ( #176, #177 ), #178, .F. );
#102 = PRESENTATION_STYLE_ASSIGNMENT( ( #179 ) );
#103 = ADVANCED_FACE( '', ( #180 ), #181, .T. );
#104 = PRODUCT( '1', '1', 'PART-1-DESC', ( #182 ) );
#105 = PRODUCT_DEFINITION( 'NONE', 'NONE', #183, #2 );
#106 = AXIS2_PLACEMENT_3D( '', #184, #185, #186 );
#109 = LENGTH_MEASURE_WITH_UNIT( LENGTH_MEASURE( 1.00000000000000 ), #187 );
#112 = DIMENSIONAL_EXPONENTS( 1.00000000000000, 0.000000000000000, 0.000000000000000, 0.000000000000000, 0.000000000000000, 0.000000000000000, 0.000000000000000 );
#114 = DIMENSIONAL_EXPONENTS( 0.000000000000000, 0.000000000000000, 0.000000000000000, 0.000000000000000, 0.000000000000000, 0.000000000000000, 0.000000000000000 );
#120 = SURFACE_STYLE_USAGE( .BOTH., #188 );
#121 = FACE_OUTER_BOUND( '', #189, .T. );
#122 = FACE_BOUND( '', #190, .T. );
#123 = PLANE( '', #191 );
#124 = POINT_STYLE( ' ', #192, POSITIVE_LENGTH_MEASURE( 1.00000000000000E-006 ), #193 );
#125 = CARTESIAN_POINT( '', ( 5000.00000000000, 0.000000000000000, -157.500000000000 ) );
#126 = CURVE_STYLE( '', #194, POSITIVE_LENGTH_MEASURE( 1.00000000000000E-006 ), #195 );
#127 = LINE( '', #196, #197 );
#128 = CURVE_STYLE( '', #198, POSITIVE_LENGTH_MEASURE( 1.00000000000000E-006 ), #199 );
#129 = LINE( '', #200, #201 );
#130 = POINT_STYLE( ' ', #202, POSITIVE_LENGTH_MEASURE( 1.00000000000000E-006 ), #203 );
#131 = CARTESIAN_POINT( '', ( 0.000000000000000, 0.000000000000000, -157.500000000000 ) );
#132 = CURVE_STYLE( '', #204, POSITIVE_LENGTH_MEASURE( 1.00000000000000E-006 ), #205 );
#133 = CIRCLE( '', #206, 157.500000000000 );
#134 = CURVE_STYLE( '', #207, POSITIVE_LENGTH_MEASURE( 1.00000000000000E-006 ), #208 );
#135 = CIRCLE( '', #209, 128.900000000000 );
#136 = POINT_STYLE( ' ', #210, POSITIVE_LENGTH_MEASURE( 1.00000000000000E-006 ), #211 );
#137 = CARTESIAN_POINT( '', ( 5000.00000000000, 1.57851759007704E-014, 128.900000000000 ) );
#138 = CURVE_STYLE( '', #212, POSITIVE_LENGTH_MEASURE( 1.00000000000000E-006 ), #213 );
#139 = CIRCLE( '', #214, 157.500000000000 );
#140 = CURVE_STYLE( '', #215, POSITIVE_LENGTH_MEASURE( 1.00000000000000E-006 ), #216 );
#141 = CIRCLE( '', #217, 157.500000000000 );
#142 = POINT_STYLE( ' ', #218, POSITIVE_LENGTH_MEASURE( 1.00000000000000E-006 ), #219 );
#143 = CARTESIAN_POINT( '', ( 0.000000000000000, 0.000000000000000, -128.900000000000 ) );
#144 = CURVE_STYLE( '', #220, POSITIVE_LENGTH_MEASURE( 1.00000000000000E-006 ), #221 );
#145 = CIRCLE( '', #222, 128.900000000000 );
#146 = CURVE_STYLE( '', #223, POSITIVE_LENGTH_MEASURE( 1.00000000000000E-006 ), #224 );
#147 = CIRCLE( '', #225, 128.900000000000 );
#148 = POINT_STYLE( ' ', #226, POSITIVE_LENGTH_MEASURE( 1.00000000000000E-006 ), #227 );
#149 = CARTESIAN_POINT( '', ( 5000.00000000000, 1.92875500727024E-014, 157.500000000000 ) );
#150 = POINT_STYLE( ' ', #228, POSITIVE_LENGTH_MEASURE( 1.00000000000000E-006 ), #229 );
#151 = CARTESIAN_POINT( '', ( 0.000000000000000, 1.92875500727024E-014, 157.500000000000 ) );
#152 = POINT_STYLE( ' ', #230, POSITIVE_LENGTH_MEASURE( 1.00000000000000E-006 ), #231 );
#153 = CARTESIAN_POINT( '', ( 0.000000000000000, 1.57851759007704E-014, 128.900000000000 ) );
#154 = CURVE_STYLE( '', #232, POSITIVE_LENGTH_MEASURE( 1.00000000000000E-006 ), #233 );
#155 = LINE( '', #234, #235 );
#156 = CURVE_STYLE( '', #236, POSITIVE_LENGTH_MEASURE( 1.00000000000000E-006 ), #237 );
#157 = LINE( '', #238, #239 );
#158 = SURFACE_STYLE_USAGE( .BOTH., #240 );
#159 = CLOSED_SHELL( '', ( #103, #97, #91, #95, #51, #101 ) );
#160 = POINT_STYLE( ' ', #241, POSITIVE_LENGTH_MEASURE( 1.00000000000000E-006 ), #242 );
#161 = CARTESIAN_POINT( '', ( 5000.00000000000, 0.000000000000000, -128.900000000000 ) );
#162 = SURFACE_STYLE_USAGE( .BOTH., #243 );
#163 = FACE_OUTER_BOUND( '', #244, .T. );
#164 = CYLINDRICAL_SURFACE( '', #245, 128.900000000000 );
#165 = CURVE_STYLE( '', #246, POSITIVE_LENGTH_MEASURE( 1.00000000000000E-006 ), #247 );
#166 = CIRCLE( '', #248, 157.500000000000 );
#167 = SURFACE_STYLE_USAGE( .BOTH., #249 );
#168 = FACE_OUTER_BOUND( '', #250, .T. );
#169 = CYLINDRICAL_SURFACE( '', #251, 157.500000000000 );
#170 = SURFACE_STYLE_USAGE( .BOTH., #252 );
#171 = FACE_OUTER_BOUND( '', #253, .T. );
#172 = CYLINDRICAL_SURFACE( '', #254, 128.900000000000 );
#173 = CURVE_STYLE( '', #255, POSITIVE_LENGTH_MEASURE( 1.00000000000000E-006 ), #256 );
#174 = CIRCLE( '', #257, 128.900000000000 );
#175 = SURFACE_STYLE_USAGE( .BOTH., #258 );
#176 = FACE_OUTER_BOUND( '', #259, .T. );
#177 = FACE_BOUND( '', #260, .T. );
#178 = PLANE( '', #261 );
#179 = SURFACE_STYLE_USAGE( .BOTH., #262 );
#180 = FACE_OUTER_BOUND( '', #263, .T. );
#181 = CYLINDRICAL_SURFACE( '', #264, 157.500000000000 );
#182 = PRODUCT_CONTEXT( '', #37, 'mechanical' );
#183 = PRODUCT_DEFINITION_FORMATION_WITH_SPECIFIED_SOURCE( ' ', 'NONE', #104, .NOT_KNOWN. );
#184 = CARTESIAN_POINT( '', ( 0.000000000000000, 0.000000000000000, 0.000000000000000 ) );
#185 = DIRECTION( '', ( 0.000000000000000, 0.000000000000000, 1.00000000000000 ) );
#186 = DIRECTION( '', ( 1.00000000000000, 0.000000000000000, 0.000000000000000 ) );
#187 =  ( NAMED_UNIT( #112 )LENGTH_UNIT(  )SI_UNIT( .MILLI., .METRE. ) );
#188 = SURFACE_SIDE_STYLE( '', ( #266 ) );
#189 = EDGE_LOOP( '', ( #267, #268 ) );
#190 = EDGE_LOOP( '', ( #269, #270 ) );
#191 = AXIS2_PLACEMENT_3D( '', #271, #272, #273 );
#192 = PRE_DEFINED_MARKER( '' );
#193 = COLOUR_RGB( '', 0.689999997615810, 0.689999997615810, 0.689999997615810 );
#194 = DRAUGHTING_PRE_DEFINED_CURVE_FONT( 'continuous' );
#195 = COLOUR_RGB( '', 0.689999997615810, 0.689999997615810, 0.689999997615810 );
#196 = CARTESIAN_POINT( '', ( 0.000000000000000, -1.92875500727024E-014, -157.500000000000 ) );
#197 = VECTOR( '', #274, 1.00000000000000 );
#198 = DRAUGHTING_PRE_DEFINED_CURVE_FONT( 'continuous' );
#199 = COLOUR_RGB( '', 0.689999997615810, 0.689999997615810, 0.689999997615810 );
#200 = CARTESIAN_POINT( '', ( 0.000000000000000, 1.92875500727024E-014, 157.500000000000 ) );
#201 = VECTOR( '', #275, 1.00000000000000 );
#202 = PRE_DEFINED_MARKER( '' );
#203 = COLOUR_RGB( '', 0.689999997615810, 0.689999997615810, 0.689999997615810 );
#204 = DRAUGHTING_PRE_DEFINED_CURVE_FONT( 'continuous' );
#205 = COLOUR_RGB( '', 0.689999997615810, 0.689999997615810, 0.689999997615810 );
#206 = AXIS2_PLACEMENT_3D( '', #276, #277, #278 );
#207 = DRAUGHTING_PRE_DEFINED_CURVE_FONT( 'continuous' );
#208 = COLOUR_RGB( '', 0.689999997615810, 0.689999997615810, 0.689999997615810 );
#209 = AXIS2_PLACEMENT_3D( '', #279, #280, #281 );
#210 = PRE_DEFINED_MARKER( '' );
#211 = COLOUR_RGB( '', 0.689999997615810, 0.689999997615810, 0.689999997615810 );
#212 = DRAUGHTING_PRE_DEFINED_CURVE_FONT( 'continuous' );
#213 = COLOUR_RGB( '', 0.689999997615810, 0.689999997615810, 0.689999997615810 );
#214 = AXIS2_PLACEMENT_3D( '', #282, #283, #284 );
#215 = DRAUGHTING_PRE_DEFINED_CURVE_FONT( 'continuous' );
#216 = COLOUR_RGB( '', 0.689999997615810, 0.689999997615810, 0.689999997615810 );
#217 = AXIS2_PLACEMENT_3D( '', #285, #286, #287 );
#218 = PRE_DEFINED_MARKER( '' );
#219 = COLOUR_RGB( '', 0.689999997615810, 0.689999997615810, 0.689999997615810 );
#220 = DRAUGHTING_PRE_DEFINED_CURVE_FONT( 'continuous' );
#221 = COLOUR_RGB( '', 0.689999997615810, 0.689999997615810, 0.689999997615810 );
#222 = AXIS2_PLACEMENT_3D( '', #288, #289, #290 );
#223 = DRAUGHTING_PRE_DEFINED_CURVE_FONT( 'continuous' );
#224 = COLOUR_RGB( '', 0.689999997615810, 0.689999997615810, 0.689999997615810 );
#225 = AXIS2_PLACEMENT_3D( '', #291, #292, #293 );
#226 = PRE_DEFINED_MARKER( '' );
#227 = COLOUR_RGB( '', 0.689999997615810, 0.689999997615810, 0.689999997615810 );
#228 = PRE_DEFINED_MARKER( '' );
#229 = COLOUR_RGB( '', 0.689999997615810, 0.689999997615810, 0.689999997615810 );
#230 = PRE_DEFINED_MARKER( '' );
#231 = COLOUR_RGB( '', 0.689999997615810, 0.689999997615810, 0.689999997615810 );
#232 = DRAUGHTING_PRE_DEFINED_CURVE_FONT( 'continuous' );
#233 = COLOUR_RGB( '', 0.689999997615810, 0.689999997615810, 0.689999997615810 );
#234 = CARTESIAN_POINT( '', ( 0.000000000000000, -1.57851759007704E-014, -128.900000000000 ) );
#235 = VECTOR( '', #294, 1.00000000000000 );
#236 = DRAUGHTING_PRE_DEFINED_CURVE_FONT( 'continuous' );
#237 = COLOUR_RGB( '', 0.689999997615810, 0.689999997615810, 0.689999997615810 );
#238 = CARTESIAN_POINT( '', ( 0.000000000000000, 1.57851759007704E-014, 128.900000000000 ) );
#239 = VECTOR( '', #295, 1.00000000000000 );
#240 = SURFACE_SIDE_STYLE( '', ( #296 ) );
#241 = PRE_DEFINED_MARKER( '' );
#242 = COLOUR_RGB( '', 0.689999997615810, 0.689999997615810, 0.689999997615810 );
#243 = SURFACE_SIDE_STYLE( '', ( #297 ) );
#244 = EDGE_LOOP( '', ( #298, #299, #300, #301 ) );
#245 = AXIS2_PLACEMENT_3D( '', #302, #303, #304 );
#246 = DRAUGHTING_PRE_DEFINED_CURVE_FONT( 'continuous' );
#247 = COLOUR_RGB( '', 0.689999997615810, 0.689999997615810, 0.689999997615810 );
#248 = AXIS2_PLACEMENT_3D( '', #305, #306, #307 );
#249 = SURFACE_SIDE_STYLE( '', ( #308 ) );
#250 = EDGE_LOOP( '', ( #309, #310, #311, #312 ) );
#251 = AXIS2_PLACEMENT_3D( '', #313, #314, #315 );
#252 = SURFACE_SIDE_STYLE( '', ( #316 ) );
#253 = EDGE_LOOP( '', ( #317, #318, #319, #320 ) );
#254 = AXIS2_PLACEMENT_3D( '', #321, #322, #323 );
#255 = DRAUGHTING_PRE_DEFINED_CURVE_FONT( 'continuous' );
#256 = COLOUR_RGB( '', 0.689999997615810, 0.689999997615810, 0.689999997615810 );
#257 = AXIS2_PLACEMENT_3D( '', #324, #325, #326 );
#258 = SURFACE_SIDE_STYLE( '', ( #327 ) );
#259 = EDGE_LOOP( '', ( #328, #329 ) );
#260 = EDGE_LOOP( '', ( #330, #331 ) );
#261 = AXIS2_PLACEMENT_3D( '', #332, #333, #334 );
#262 = SURFACE_SIDE_STYLE( '', ( #335 ) );
#263 = EDGE_LOOP( '', ( #336, #337, #338, #339 ) );
#264 = AXIS2_PLACEMENT_3D( '', #340, #341, #342 );
#266 = SURFACE_STYLE_FILL_AREA( #343 );
#267 = ORIENTED_EDGE( '', *, *, #93, .F. );
#268 = ORIENTED_EDGE( '', *, *, #69, .F. );
#269 = ORIENTED_EDGE( '', *, *, #75, .F. );
#270 = ORIENTED_EDGE( '', *, *, #99, .F. );
#271 = CARTESIAN_POINT( '', ( 5000.00000000000, 0.000000000000000, 0.000000000000000 ) );
#272 = DIRECTION( '', ( 1.00000000000000, 0.000000000000000, 0.000000000000000 ) );
#273 = DIRECTION( '', ( 0.000000000000000, 0.000000000000000, -1.00000000000000 ) );
#274 = DIRECTION( '', ( 1.00000000000000, 0.000000000000000, 0.000000000000000 ) );
#275 = DIRECTION( '', ( -1.00000000000000, -0.000000000000000, -0.000000000000000 ) );
#276 = CARTESIAN_POINT( '', ( 0.000000000000000, 0.000000000000000, 0.000000000000000 ) );
#277 = DIRECTION( '', ( 1.00000000000000, -0.000000000000000, 0.000000000000000 ) );
#278 = DIRECTION( '', ( 0.000000000000000, 0.000000000000000, -1.00000000000000 ) );
#279 = CARTESIAN_POINT( '', ( 0.000000000000000, 0.000000000000000, 0.000000000000000 ) );
#280 = DIRECTION( '', ( 1.00000000000000, -0.000000000000000, 0.000000000000000 ) );
#281 = DIRECTION( '', ( 0.000000000000000, 0.000000000000000, -1.00000000000000 ) );
#282 = CARTESIAN_POINT( '', ( 0.000000000000000, 0.000000000000000, 0.000000000000000 ) );
#283 = DIRECTION( '', ( 1.00000000000000, -0.000000000000000, 0.000000000000000 ) );
#284 = DIRECTION( '', ( 0.000000000000000, 0.000000000000000, -1.00000000000000 ) );
#285 = CARTESIAN_POINT( '', ( 5000.00000000000, 0.000000000000000, 0.000000000000000 ) );
#286 = DIRECTION( '', ( -1.00000000000000, 0.000000000000000, 0.000000000000000 ) );
#287 = DIRECTION( '', ( 0.000000000000000, 0.000000000000000, -1.00000000000000 ) );
#288 = CARTESIAN_POINT( '', ( 0.000000000000000, 0.000000000000000, 0.000000000000000 ) );
#289 = DIRECTION( '', ( 1.00000000000000, -0.000000000000000, 0.000000000000000 ) );
#290 = DIRECTION( '', ( 0.000000000000000, 0.000000000000000, -1.00000000000000 ) );
#291 = CARTESIAN_POINT( '', ( 5000.00000000000, 0.000000000000000, 0.000000000000000 ) );
#292 = DIRECTION( '', ( 1.00000000000000, 0.000000000000000, 0.000000000000000 ) );
#293 = DIRECTION( '', ( 0.000000000000000, 0.000000000000000, -1.00000000000000 ) );
#294 = DIRECTION( '', ( 1.00000000000000, 0.000000000000000, 0.000000000000000 ) );
#295 = DIRECTION( '', ( -1.00000000000000, 0.000000000000000, 0.000000000000000 ) );
#296 = SURFACE_STYLE_FILL_AREA( #344 );
#297 = SURFACE_STYLE_FILL_AREA( #345 );
#298 = ORIENTED_EDGE( '', *, *, #83, .T. );
#299 = ORIENTED_EDGE( '', *, *, #75, .T. );
#300 = ORIENTED_EDGE( '', *, *, #85, .T. );
#301 = ORIENTED_EDGE( '', *, *, #63, .F. );
#302 = CARTESIAN_POINT( '', ( 0.000000000000000, 0.000000000000000, 0.000000000000000 ) );
#303 = DIRECTION( '', ( -1.00000000000000, -0.000000000000000, -0.000000000000000 ) );
#304 = DIRECTION( '', ( 0.000000000000000, 0.000000000000000, -1.00000000000000 ) );
#305 = CARTESIAN_POINT( '', ( 5000.00000000000, 0.000000000000000, 0.000000000000000 ) );
#306 = DIRECTION( '', ( -1.00000000000000, 0.000000000000000, 0.000000000000000 ) );
#307 = DIRECTION( '', ( 0.000000000000000, 0.000000000000000, -1.00000000000000 ) );
#308 = SURFACE_STYLE_FILL_AREA( #346 );
#309 = ORIENTED_EDGE( '', *, *, #55, .T. );
#310 = ORIENTED_EDGE( '', *, *, #93, .T. );
#311 = ORIENTED_EDGE( '', *, *, #57, .T. );
#312 = ORIENTED_EDGE( '', *, *, #67, .T. );
#313 = CARTESIAN_POINT( '', ( 0.000000000000000, 0.000000000000000, 0.000000000000000 ) );
#314 = DIRECTION( '', ( -1.00000000000000, -0.000000000000000, -0.000000000000000 ) );
#315 = DIRECTION( '', ( 0.000000000000000, 0.000000000000000, -1.00000000000000 ) );
#316 = SURFACE_STYLE_FILL_AREA( #347 );
#317 = ORIENTED_EDGE( '', *, *, #83, .F. );
#318 = ORIENTED_EDGE( '', *, *, #73, .F. );
#319 = ORIENTED_EDGE( '', *, *, #85, .F. );
#320 = ORIENTED_EDGE( '', *, *, #99, .T. );
#321 = CARTESIAN_POINT( '', ( 0.000000000000000, 0.000000000000000, 0.000000000000000 ) );
#322 = DIRECTION( '', ( -1.00000000000000, -0.000000000000000, -0.000000000000000 ) );
#323 = DIRECTION( '', ( 0.000000000000000, 0.000000000000000, -1.00000000000000 ) );
#324 = CARTESIAN_POINT( '', ( 5000.00000000000, 0.000000000000000, 0.000000000000000 ) );
#325 = DIRECTION( '', ( 1.00000000000000, 0.000000000000000, 0.000000000000000 ) );
#326 = DIRECTION( '', ( 0.000000000000000, 0.000000000000000, -1.00000000000000 ) );
#327 = SURFACE_STYLE_FILL_AREA( #348 );
#328 = ORIENTED_EDGE( '', *, *, #61, .F. );
#329 = ORIENTED_EDGE( '', *, *, #67, .F. );
#330 = ORIENTED_EDGE( '', *, *, #63, .T. );
#331 = ORIENTED_EDGE( '', *, *, #73, .T. );
#332 = CARTESIAN_POINT( '', ( 0.000000000000000, 0.000000000000000, 0.000000000000000 ) );
#333 = DIRECTION( '', ( 1.00000000000000, 0.000000000000000, 0.000000000000000 ) );
#334 = DIRECTION( '', ( 0.000000000000000, 0.000000000000000, -1.00000000000000 ) );
#335 = SURFACE_STYLE_FILL_AREA( #349 );
#336 = ORIENTED_EDGE( '', *, *, #55, .F. );
#337 = ORIENTED_EDGE( '', *, *, #61, .T. );
#338 = ORIENTED_EDGE( '', *, *, #57, .F. );
#339 = ORIENTED_EDGE( '', *, *, #69, .T. );
#340 = CARTESIAN_POINT( '', ( 0.000000000000000, 0.000000000000000, 0.000000000000000 ) );
#341 = DIRECTION( '', ( -1.00000000000000, -0.000000000000000, -0.000000000000000 ) );
#342 = DIRECTION( '', ( 0.000000000000000, 0.000000000000000, -1.00000000000000 ) );
#343 = FILL_AREA_STYLE( '', ( #350 ) );
#344 = FILL_AREA_STYLE( '', ( #351 ) );
#345 = FILL_AREA_STYLE( '', ( #352 ) );
#346 = FILL_AREA_STYLE( '', ( #353 ) );
#347 = FILL_AREA_STYLE( '', ( #354 ) );
#348 = FILL_AREA_STYLE( '', ( #355 ) );
#349 = FILL_AREA_STYLE( '', ( #356 ) );
#350 = FILL_AREA_STYLE_COLOUR( '', #357 );
#351 = FILL_AREA_STYLE_COLOUR( '', #358 );
#352 = FILL_AREA_STYLE_COLOUR( '', #359 );
#353 = FILL_AREA_STYLE_COLOUR( '', #360 );
#354 = FILL_AREA_STYLE_COLOUR( '', #361 );
#355 = FILL_AREA_STYLE_COLOUR( '', #362 );
#356 = FILL_AREA_STYLE_COLOUR( '', #363 );
#357 = COLOUR_RGB( '', 0.689999997615810, 0.689999997615810, 0.689999997615810 );
#358 = COLOUR_RGB( '', 0.689999997615810, 0.689999997615810, 0.689999997615810 );
#359 = COLOUR_RGB( '', 0.689999997615810, 0.689999997615810, 0.689999997615810 );
#360 = COLOUR_RGB( '', 0.689999997615810, 0.689999997615810, 0.689999997615810 );
#361 = COLOUR_RGB( '', 0.689999997615810, 0.689999997615810, 0.689999997615810 );
#362 = COLOUR_RGB( '', 0.689999997615810, 0.689999997615810, 0.689999997615810 );
#363 = COLOUR_RGB( '', 0.689999997615810, 0.689999997615810, 0.689999997615810 );
ENDSEC;
END-ISO-10303-21;
