ISO-10303-21;
HEADER;
/* Generated by software containing ST-Developer
 * from STEP Tools, Inc. (www.steptools.com) 
 */

FILE_DESCRIPTION(
/* description */ (''),
/* implementation_level */ '2;1');

FILE_NAME(
/* name */ 'C:\\Users\\mdebiase\\Desktop\\baricentro\\MIFV020012.ipt.s
tp',
/* time_stamp */ '2014-06-06T15:26:53+02:00',
/* author */ ('bfaro'),
/* organization */ (''),
/* preprocessor_version */ 'ST-DEVELOPER v15.6',
/* originating_system */ 'Autodesk Inventor 2015',
/* authorisation */ '');

FILE_SCHEMA (('AUTOMOTIVE_DESIGN { 1 0 10303 214 3 1 1 }'));
ENDSEC;

DATA;
#10=MECHANICAL_DESIGN_GEOMETRIC_PRESENTATION_REPRESENTATION('',(#300,#299),
#538);
#11=SHAPE_REPRESENTATION_RELATIONSHIP('SRR','None',#547,#12);
#12=ADVANCED_BREP_SHAPE_REPRESENTATION($,(#13),#537);
#13=MANIFOLD_SOLID_BREP('4D5',#322);
#14=LINE('',#484,#38);
#15=LINE('',#486,#39);
#16=LINE('',#488,#40);
#17=LINE('',#490,#41);
#18=LINE('',#492,#42);
#19=LINE('',#494,#43);
#20=LINE('',#496,#44);
#21=LINE('',#497,#45);
#22=LINE('',#501,#46);
#23=LINE('',#503,#47);
#24=LINE('',#505,#48);
#25=LINE('',#507,#49);
#26=LINE('',#509,#50);
#27=LINE('',#511,#51);
#28=LINE('',#513,#52);
#29=LINE('',#514,#53);
#30=LINE('',#516,#54);
#31=LINE('',#517,#55);
#32=LINE('',#519,#56);
#33=LINE('',#521,#57);
#34=LINE('',#523,#58);
#35=LINE('',#525,#59);
#36=LINE('',#527,#60);
#37=LINE('',#529,#61);
#38=VECTOR('',#399,12.0121933088198);
#39=VECTOR('',#400,12.0121933088197);
#40=VECTOR('',#401,12.01219330882);
#41=VECTOR('',#402,12.0121933088196);
#42=VECTOR('',#403,12.0121933088198);
#43=VECTOR('',#404,12.0121933088196);
#44=VECTOR('',#405,12.01219330882);
#45=VECTOR('',#406,12.0121933088197);
#46=VECTOR('',#409,12.0121933088197);
#47=VECTOR('',#410,12.0121933088198);
#48=VECTOR('',#411,12.0121933088197);
#49=VECTOR('',#412,12.01219330882);
#50=VECTOR('',#413,12.0121933088196);
#51=VECTOR('',#414,12.0121933088198);
#52=VECTOR('',#415,12.0121933088196);
#53=VECTOR('',#416,12.01219330882);
#54=VECTOR('',#419,11.8635299286737);
#55=VECTOR('',#420,11.8635299286737);
#56=VECTOR('',#423,11.8635299286737);
#57=VECTOR('',#426,11.8635299286737);
#58=VECTOR('',#429,11.8635299286737);
#59=VECTOR('',#432,11.8635299286737);
#60=VECTOR('',#435,11.8635299286737);
#61=VECTOR('',#438,11.8635299286737);
#62=PLANE('',#343);
#63=PLANE('',#344);
#64=PLANE('',#345);
#65=PLANE('',#346);
#66=PLANE('',#347);
#67=PLANE('',#348);
#68=PLANE('',#349);
#69=PLANE('',#350);
#70=PLANE('',#351);
#71=PLANE('',#352);
#72=PLANE('',#353);
#73=PLANE('',#354);
#74=PLANE('',#355);
#75=PLANE('',#356);
#76=TOROIDAL_SURFACE('',#330,13.3,1.);
#77=TOROIDAL_SURFACE('',#338,13.3,1.);
#78=FACE_BOUND('',#113,.T.);
#79=FACE_BOUND('',#115,.T.);
#80=FACE_BOUND('',#117,.T.);
#81=FACE_BOUND('',#119,.T.);
#82=FACE_BOUND('',#121,.T.);
#83=FACE_BOUND('',#123,.T.);
#84=FACE_BOUND('',#125,.T.);
#85=FACE_BOUND('',#127,.T.);
#86=FACE_BOUND('',#129,.T.);
#87=FACE_BOUND('',#139,.T.);
#88=FACE_BOUND('',#141,.T.);
#89=FACE_BOUND('',#143,.T.);
#90=FACE_BOUND('',#145,.T.);
#91=FACE_OUTER_BOUND('',#112,.T.);
#92=FACE_OUTER_BOUND('',#114,.T.);
#93=FACE_OUTER_BOUND('',#116,.T.);
#94=FACE_OUTER_BOUND('',#118,.T.);
#95=FACE_OUTER_BOUND('',#120,.T.);
#96=FACE_OUTER_BOUND('',#122,.T.);
#97=FACE_OUTER_BOUND('',#124,.T.);
#98=FACE_OUTER_BOUND('',#126,.T.);
#99=FACE_OUTER_BOUND('',#128,.T.);
#100=FACE_OUTER_BOUND('',#130,.T.);
#101=FACE_OUTER_BOUND('',#131,.T.);
#102=FACE_OUTER_BOUND('',#132,.T.);
#103=FACE_OUTER_BOUND('',#133,.T.);
#104=FACE_OUTER_BOUND('',#134,.T.);
#105=FACE_OUTER_BOUND('',#135,.T.);
#106=FACE_OUTER_BOUND('',#136,.T.);
#107=FACE_OUTER_BOUND('',#137,.T.);
#108=FACE_OUTER_BOUND('',#138,.T.);
#109=FACE_OUTER_BOUND('',#140,.T.);
#110=FACE_OUTER_BOUND('',#142,.T.);
#111=FACE_OUTER_BOUND('',#144,.T.);
#112=EDGE_LOOP('',(#222));
#113=EDGE_LOOP('',(#223));
#114=EDGE_LOOP('',(#224));
#115=EDGE_LOOP('',(#225));
#116=EDGE_LOOP('',(#226));
#117=EDGE_LOOP('',(#227));
#118=EDGE_LOOP('',(#228));
#119=EDGE_LOOP('',(#229));
#120=EDGE_LOOP('',(#230));
#121=EDGE_LOOP('',(#231));
#122=EDGE_LOOP('',(#232));
#123=EDGE_LOOP('',(#233));
#124=EDGE_LOOP('',(#234));
#125=EDGE_LOOP('',(#235));
#126=EDGE_LOOP('',(#236,#237,#238,#239,#240,#241,#242,#243));
#127=EDGE_LOOP('',(#244));
#128=EDGE_LOOP('',(#245,#246,#247,#248,#249,#250,#251,#252));
#129=EDGE_LOOP('',(#253));
#130=EDGE_LOOP('',(#254,#255,#256,#257));
#131=EDGE_LOOP('',(#258,#259,#260,#261));
#132=EDGE_LOOP('',(#262,#263,#264,#265));
#133=EDGE_LOOP('',(#266,#267,#268,#269));
#134=EDGE_LOOP('',(#270,#271,#272,#273));
#135=EDGE_LOOP('',(#274,#275,#276,#277));
#136=EDGE_LOOP('',(#278,#279,#280,#281));
#137=EDGE_LOOP('',(#282,#283,#284,#285));
#138=EDGE_LOOP('',(#286));
#139=EDGE_LOOP('',(#287));
#140=EDGE_LOOP('',(#288));
#141=EDGE_LOOP('',(#289));
#142=EDGE_LOOP('',(#290));
#143=EDGE_LOOP('',(#291));
#144=EDGE_LOOP('',(#292));
#145=EDGE_LOOP('',(#293));
#146=CIRCLE('',#325,9.3155);
#147=CIRCLE('',#326,9.3155);
#148=CIRCLE('',#328,14.3);
#149=CIRCLE('',#329,14.3);
#150=CIRCLE('',#331,13.3);
#151=CIRCLE('',#333,10.);
#152=CIRCLE('',#334,10.);
#153=CIRCLE('',#336,9.10000000000014);
#154=CIRCLE('',#337,9.10000000000014);
#155=CIRCLE('',#339,14.3);
#156=CIRCLE('',#340,13.3);
#157=CIRCLE('',#342,14.3);
#158=VERTEX_POINT('',#451);
#159=VERTEX_POINT('',#453);
#160=VERTEX_POINT('',#456);
#161=VERTEX_POINT('',#458);
#162=VERTEX_POINT('',#461);
#163=VERTEX_POINT('',#464);
#164=VERTEX_POINT('',#466);
#165=VERTEX_POINT('',#469);
#166=VERTEX_POINT('',#471);
#167=VERTEX_POINT('',#474);
#168=VERTEX_POINT('',#476);
#169=VERTEX_POINT('',#479);
#170=VERTEX_POINT('',#482);
#171=VERTEX_POINT('',#483);
#172=VERTEX_POINT('',#485);
#173=VERTEX_POINT('',#487);
#174=VERTEX_POINT('',#489);
#175=VERTEX_POINT('',#491);
#176=VERTEX_POINT('',#493);
#177=VERTEX_POINT('',#495);
#178=VERTEX_POINT('',#499);
#179=VERTEX_POINT('',#500);
#180=VERTEX_POINT('',#502);
#181=VERTEX_POINT('',#504);
#182=VERTEX_POINT('',#506);
#183=VERTEX_POINT('',#508);
#184=VERTEX_POINT('',#510);
#185=VERTEX_POINT('',#512);
#186=EDGE_CURVE('',#158,#158,#146,.T.);
#187=EDGE_CURVE('',#159,#159,#147,.T.);
#188=EDGE_CURVE('',#160,#160,#148,.T.);
#189=EDGE_CURVE('',#161,#161,#149,.T.);
#190=EDGE_CURVE('',#162,#162,#150,.T.);
#191=EDGE_CURVE('',#163,#163,#151,.T.);
#192=EDGE_CURVE('',#164,#164,#152,.T.);
#193=EDGE_CURVE('',#165,#165,#153,.T.);
#194=EDGE_CURVE('',#166,#166,#154,.T.);
#195=EDGE_CURVE('',#167,#167,#155,.T.);
#196=EDGE_CURVE('',#168,#168,#156,.T.);
#197=EDGE_CURVE('',#169,#169,#157,.T.);
#198=EDGE_CURVE('',#170,#171,#14,.T.);
#199=EDGE_CURVE('',#172,#170,#15,.T.);
#200=EDGE_CURVE('',#173,#172,#16,.T.);
#201=EDGE_CURVE('',#174,#173,#17,.T.);
#202=EDGE_CURVE('',#175,#174,#18,.T.);
#203=EDGE_CURVE('',#176,#175,#19,.T.);
#204=EDGE_CURVE('',#177,#176,#20,.T.);
#205=EDGE_CURVE('',#171,#177,#21,.T.);
#206=EDGE_CURVE('',#178,#179,#22,.T.);
#207=EDGE_CURVE('',#179,#180,#23,.T.);
#208=EDGE_CURVE('',#180,#181,#24,.T.);
#209=EDGE_CURVE('',#181,#182,#25,.T.);
#210=EDGE_CURVE('',#182,#183,#26,.T.);
#211=EDGE_CURVE('',#183,#184,#27,.T.);
#212=EDGE_CURVE('',#184,#185,#28,.T.);
#213=EDGE_CURVE('',#185,#178,#29,.T.);
#214=EDGE_CURVE('',#180,#171,#30,.T.);
#215=EDGE_CURVE('',#179,#170,#31,.T.);
#216=EDGE_CURVE('',#181,#177,#32,.T.);
#217=EDGE_CURVE('',#182,#176,#33,.T.);
#218=EDGE_CURVE('',#183,#175,#34,.T.);
#219=EDGE_CURVE('',#184,#174,#35,.T.);
#220=EDGE_CURVE('',#185,#173,#36,.T.);
#221=EDGE_CURVE('',#178,#172,#37,.T.);
#222=ORIENTED_EDGE('',*,*,#186,.F.);
#223=ORIENTED_EDGE('',*,*,#187,.F.);
#224=ORIENTED_EDGE('',*,*,#188,.T.);
#225=ORIENTED_EDGE('',*,*,#189,.F.);
#226=ORIENTED_EDGE('',*,*,#190,.T.);
#227=ORIENTED_EDGE('',*,*,#188,.F.);
#228=ORIENTED_EDGE('',*,*,#191,.F.);
#229=ORIENTED_EDGE('',*,*,#192,.T.);
#230=ORIENTED_EDGE('',*,*,#193,.F.);
#231=ORIENTED_EDGE('',*,*,#194,.T.);
#232=ORIENTED_EDGE('',*,*,#195,.T.);
#233=ORIENTED_EDGE('',*,*,#196,.F.);
#234=ORIENTED_EDGE('',*,*,#197,.T.);
#235=ORIENTED_EDGE('',*,*,#195,.F.);
#236=ORIENTED_EDGE('',*,*,#198,.F.);
#237=ORIENTED_EDGE('',*,*,#199,.F.);
#238=ORIENTED_EDGE('',*,*,#200,.F.);
#239=ORIENTED_EDGE('',*,*,#201,.F.);
#240=ORIENTED_EDGE('',*,*,#202,.F.);
#241=ORIENTED_EDGE('',*,*,#203,.F.);
#242=ORIENTED_EDGE('',*,*,#204,.F.);
#243=ORIENTED_EDGE('',*,*,#205,.F.);
#244=ORIENTED_EDGE('',*,*,#189,.T.);
#245=ORIENTED_EDGE('',*,*,#206,.T.);
#246=ORIENTED_EDGE('',*,*,#207,.T.);
#247=ORIENTED_EDGE('',*,*,#208,.T.);
#248=ORIENTED_EDGE('',*,*,#209,.T.);
#249=ORIENTED_EDGE('',*,*,#210,.T.);
#250=ORIENTED_EDGE('',*,*,#211,.T.);
#251=ORIENTED_EDGE('',*,*,#212,.T.);
#252=ORIENTED_EDGE('',*,*,#213,.T.);
#253=ORIENTED_EDGE('',*,*,#197,.F.);
#254=ORIENTED_EDGE('',*,*,#198,.T.);
#255=ORIENTED_EDGE('',*,*,#214,.F.);
#256=ORIENTED_EDGE('',*,*,#207,.F.);
#257=ORIENTED_EDGE('',*,*,#215,.T.);
#258=ORIENTED_EDGE('',*,*,#205,.T.);
#259=ORIENTED_EDGE('',*,*,#216,.F.);
#260=ORIENTED_EDGE('',*,*,#208,.F.);
#261=ORIENTED_EDGE('',*,*,#214,.T.);
#262=ORIENTED_EDGE('',*,*,#204,.T.);
#263=ORIENTED_EDGE('',*,*,#217,.F.);
#264=ORIENTED_EDGE('',*,*,#209,.F.);
#265=ORIENTED_EDGE('',*,*,#216,.T.);
#266=ORIENTED_EDGE('',*,*,#203,.T.);
#267=ORIENTED_EDGE('',*,*,#218,.F.);
#268=ORIENTED_EDGE('',*,*,#210,.F.);
#269=ORIENTED_EDGE('',*,*,#217,.T.);
#270=ORIENTED_EDGE('',*,*,#202,.T.);
#271=ORIENTED_EDGE('',*,*,#219,.F.);
#272=ORIENTED_EDGE('',*,*,#211,.F.);
#273=ORIENTED_EDGE('',*,*,#218,.T.);
#274=ORIENTED_EDGE('',*,*,#201,.T.);
#275=ORIENTED_EDGE('',*,*,#220,.F.);
#276=ORIENTED_EDGE('',*,*,#212,.F.);
#277=ORIENTED_EDGE('',*,*,#219,.T.);
#278=ORIENTED_EDGE('',*,*,#200,.T.);
#279=ORIENTED_EDGE('',*,*,#221,.F.);
#280=ORIENTED_EDGE('',*,*,#213,.F.);
#281=ORIENTED_EDGE('',*,*,#220,.T.);
#282=ORIENTED_EDGE('',*,*,#199,.T.);
#283=ORIENTED_EDGE('',*,*,#215,.F.);
#284=ORIENTED_EDGE('',*,*,#206,.F.);
#285=ORIENTED_EDGE('',*,*,#221,.T.);
#286=ORIENTED_EDGE('',*,*,#196,.T.);
#287=ORIENTED_EDGE('',*,*,#186,.T.);
#288=ORIENTED_EDGE('',*,*,#187,.T.);
#289=ORIENTED_EDGE('',*,*,#194,.F.);
#290=ORIENTED_EDGE('',*,*,#192,.F.);
#291=ORIENTED_EDGE('',*,*,#193,.T.);
#292=ORIENTED_EDGE('',*,*,#190,.F.);
#293=ORIENTED_EDGE('',*,*,#191,.T.);
#294=CYLINDRICAL_SURFACE('',#324,9.3155);
#295=CYLINDRICAL_SURFACE('',#327,14.3);
#296=CYLINDRICAL_SURFACE('',#332,10.);
#297=CYLINDRICAL_SURFACE('',#335,9.10000000000014);
#298=CYLINDRICAL_SURFACE('',#341,14.3);
#299=STYLED_ITEM('',(#557),#301);
#300=STYLED_ITEM('',(#556),#13);
#301=ADVANCED_FACE('',(#91,#78),#294,.F.);
#302=ADVANCED_FACE('',(#92,#79),#295,.T.);
#303=ADVANCED_FACE('',(#93,#80),#76,.T.);
#304=ADVANCED_FACE('',(#94,#81),#296,.F.);
#305=ADVANCED_FACE('',(#95,#82),#297,.F.);
#306=ADVANCED_FACE('',(#96,#83),#77,.T.);
#307=ADVANCED_FACE('',(#97,#84),#298,.T.);
#308=ADVANCED_FACE('',(#98,#85),#62,.T.);
#309=ADVANCED_FACE('',(#99,#86),#63,.F.);
#310=ADVANCED_FACE('',(#100),#64,.T.);
#311=ADVANCED_FACE('',(#101),#65,.T.);
#312=ADVANCED_FACE('',(#102),#66,.T.);
#313=ADVANCED_FACE('',(#103),#67,.T.);
#314=ADVANCED_FACE('',(#104),#68,.T.);
#315=ADVANCED_FACE('',(#105),#69,.T.);
#316=ADVANCED_FACE('',(#106),#70,.T.);
#317=ADVANCED_FACE('',(#107),#71,.T.);
#318=ADVANCED_FACE('',(#108,#87),#72,.T.);
#319=ADVANCED_FACE('',(#109,#88),#73,.T.);
#320=ADVANCED_FACE('',(#110,#89),#74,.T.);
#321=ADVANCED_FACE('',(#111,#90),#75,.T.);
#322=CLOSED_SHELL('',(#301,#302,#303,#304,#305,#306,#307,#308,#309,#310,
#311,#312,#313,#314,#315,#316,#317,#318,#319,#320,#321));
#323=AXIS2_PLACEMENT_3D('placement',#449,#357,#358);
#324=AXIS2_PLACEMENT_3D('',#450,#359,#360);
#325=AXIS2_PLACEMENT_3D('',#452,#361,#362);
#326=AXIS2_PLACEMENT_3D('',#454,#363,#364);
#327=AXIS2_PLACEMENT_3D('',#455,#365,#366);
#328=AXIS2_PLACEMENT_3D('',#457,#367,#368);
#329=AXIS2_PLACEMENT_3D('',#459,#369,#370);
#330=AXIS2_PLACEMENT_3D('',#460,#371,#372);
#331=AXIS2_PLACEMENT_3D('',#462,#373,#374);
#332=AXIS2_PLACEMENT_3D('',#463,#375,#376);
#333=AXIS2_PLACEMENT_3D('',#465,#377,#378);
#334=AXIS2_PLACEMENT_3D('',#467,#379,#380);
#335=AXIS2_PLACEMENT_3D('',#468,#381,#382);
#336=AXIS2_PLACEMENT_3D('',#470,#383,#384);
#337=AXIS2_PLACEMENT_3D('',#472,#385,#386);
#338=AXIS2_PLACEMENT_3D('',#473,#387,#388);
#339=AXIS2_PLACEMENT_3D('',#475,#389,#390);
#340=AXIS2_PLACEMENT_3D('',#477,#391,#392);
#341=AXIS2_PLACEMENT_3D('',#478,#393,#394);
#342=AXIS2_PLACEMENT_3D('',#480,#395,#396);
#343=AXIS2_PLACEMENT_3D('',#481,#397,#398);
#344=AXIS2_PLACEMENT_3D('',#498,#407,#408);
#345=AXIS2_PLACEMENT_3D('',#515,#417,#418);
#346=AXIS2_PLACEMENT_3D('',#518,#421,#422);
#347=AXIS2_PLACEMENT_3D('',#520,#424,#425);
#348=AXIS2_PLACEMENT_3D('',#522,#427,#428);
#349=AXIS2_PLACEMENT_3D('',#524,#430,#431);
#350=AXIS2_PLACEMENT_3D('',#526,#433,#434);
#351=AXIS2_PLACEMENT_3D('',#528,#436,#437);
#352=AXIS2_PLACEMENT_3D('',#530,#439,#440);
#353=AXIS2_PLACEMENT_3D('',#531,#441,#442);
#354=AXIS2_PLACEMENT_3D('',#532,#443,#444);
#355=AXIS2_PLACEMENT_3D('',#533,#445,#446);
#356=AXIS2_PLACEMENT_3D('',#534,#447,#448);
#357=DIRECTION('axis',(0.,0.,1.));
#358=DIRECTION('refdir',(1.,0.,0.));
#359=DIRECTION('center_axis',(0.,1.,0.));
#360=DIRECTION('ref_axis',(-1.,0.,0.));
#361=DIRECTION('center_axis',(0.,1.,0.));
#362=DIRECTION('ref_axis',(-1.,0.,0.));
#363=DIRECTION('center_axis',(0.,-1.,0.));
#364=DIRECTION('ref_axis',(-1.,0.,0.));
#365=DIRECTION('center_axis',(0.,-1.,0.));
#366=DIRECTION('ref_axis',(1.,0.,0.));
#367=DIRECTION('center_axis',(0.,-1.,0.));
#368=DIRECTION('ref_axis',(1.,0.,0.));
#369=DIRECTION('center_axis',(0.,-1.,0.));
#370=DIRECTION('ref_axis',(1.,0.,0.));
#371=DIRECTION('center_axis',(0.,-1.,0.));
#372=DIRECTION('ref_axis',(0.,0.,-1.));
#373=DIRECTION('center_axis',(0.,-1.,0.));
#374=DIRECTION('ref_axis',(1.,0.,0.));
#375=DIRECTION('center_axis',(0.,-1.,0.));
#376=DIRECTION('ref_axis',(1.,0.,0.));
#377=DIRECTION('center_axis',(0.,-1.,0.));
#378=DIRECTION('ref_axis',(-1.,0.,0.));
#379=DIRECTION('center_axis',(0.,-1.,0.));
#380=DIRECTION('ref_axis',(1.,0.,0.));
#381=DIRECTION('center_axis',(0.,-1.,0.));
#382=DIRECTION('ref_axis',(1.,0.,0.));
#383=DIRECTION('center_axis',(0.,-1.,0.));
#384=DIRECTION('ref_axis',(1.,0.,0.));
#385=DIRECTION('center_axis',(0.,-1.,0.));
#386=DIRECTION('ref_axis',(1.,0.,0.));
#387=DIRECTION('center_axis',(0.,-1.,0.));
#388=DIRECTION('ref_axis',(0.,0.,-1.));
#389=DIRECTION('center_axis',(0.,-1.,0.));
#390=DIRECTION('ref_axis',(1.,0.,0.));
#391=DIRECTION('center_axis',(0.,-1.,0.));
#392=DIRECTION('ref_axis',(1.,0.,0.));
#393=DIRECTION('center_axis',(0.,-1.,0.));
#394=DIRECTION('ref_axis',(1.,0.,0.));
#395=DIRECTION('center_axis',(0.,-1.,0.));
#396=DIRECTION('ref_axis',(1.,0.,0.));
#397=DIRECTION('center_axis',(0.,1.,0.));
#398=DIRECTION('ref_axis',(0.,0.,1.));
#399=DIRECTION('',(0.,0.,-1.));
#400=DIRECTION('',(-0.707106781186545,0.,-0.70710678118655));
#401=DIRECTION('',(-1.,0.,0.));
#402=DIRECTION('',(-0.707106781186545,0.,0.70710678118655));
#403=DIRECTION('',(0.,0.,1.));
#404=DIRECTION('',(0.707106781186546,0.,0.707106781186549));
#405=DIRECTION('',(1.,0.,0.));
#406=DIRECTION('',(0.707106781186545,0.,-0.70710678118655));
#407=DIRECTION('center_axis',(0.,1.,0.));
#408=DIRECTION('ref_axis',(0.,0.,1.));
#409=DIRECTION('',(-0.707106781186545,0.,-0.70710678118655));
#410=DIRECTION('',(0.,0.,-1.));
#411=DIRECTION('',(0.707106781186545,0.,-0.70710678118655));
#412=DIRECTION('',(1.,0.,0.));
#413=DIRECTION('',(0.707106781186546,0.,0.707106781186549));
#414=DIRECTION('',(0.,0.,1.));
#415=DIRECTION('',(-0.707106781186545,0.,0.70710678118655));
#416=DIRECTION('',(-1.,0.,0.));
#417=DIRECTION('center_axis',(-1.,0.,0.));
#418=DIRECTION('ref_axis',(0.,0.,1.));
#419=DIRECTION('',(0.,1.,0.));
#420=DIRECTION('',(0.,1.,0.));
#421=DIRECTION('center_axis',(-0.70710678118655,-1.058769E-16,-0.707106781186545));
#422=DIRECTION('ref_axis',(-0.707106781186545,0.,0.70710678118655));
#423=DIRECTION('',(0.,1.,0.));
#424=DIRECTION('center_axis',(0.,0.,-1.));
#425=DIRECTION('ref_axis',(-1.,0.,0.));
#426=DIRECTION('',(0.,1.,0.));
#427=DIRECTION('center_axis',(0.707106781186549,-1.058769E-16,-0.707106781186546));
#428=DIRECTION('ref_axis',(-0.707106781186546,0.,-0.707106781186549));
#429=DIRECTION('',(0.,1.,0.));
#430=DIRECTION('center_axis',(1.,0.,0.));
#431=DIRECTION('ref_axis',(0.,0.,-1.));
#432=DIRECTION('',(0.,1.,0.));
#433=DIRECTION('center_axis',(0.70710678118655,1.058769E-16,0.707106781186545));
#434=DIRECTION('ref_axis',(0.707106781186545,0.,-0.70710678118655));
#435=DIRECTION('',(0.,1.,0.));
#436=DIRECTION('center_axis',(0.,0.,1.));
#437=DIRECTION('ref_axis',(1.,0.,0.));
#438=DIRECTION('',(0.,1.,0.));
#439=DIRECTION('center_axis',(-0.70710678118655,1.058769E-16,0.707106781186545));
#440=DIRECTION('ref_axis',(0.707106781186545,0.,0.70710678118655));
#441=DIRECTION('center_axis',(0.,-1.,0.));
#442=DIRECTION('ref_axis',(0.,0.,-1.));
#443=DIRECTION('center_axis',(0.,-1.,0.));
#444=DIRECTION('ref_axis',(0.,0.,-1.));
#445=DIRECTION('center_axis',(0.,1.,0.));
#446=DIRECTION('ref_axis',(0.,0.,1.));
#447=DIRECTION('center_axis',(0.,1.,0.));
#448=DIRECTION('ref_axis',(0.,0.,1.));
#449=CARTESIAN_POINT('',(0.,0.,0.));
#450=CARTESIAN_POINT('Origin',(-2.58866350577591E-7,-17.987554812612,0.));
#451=CARTESIAN_POINT('',(9.31549974113352,-17.987554812612,1.14081972574572E-15));
#452=CARTESIAN_POINT('Origin',(-2.58866350577591E-7,-17.9875548126122,0.));
#453=CARTESIAN_POINT('',(9.31549974113352,-0.987554812611791,1.14081972574572E-15));
#454=CARTESIAN_POINT('Origin',(-2.58866350577591E-7,-0.987554812611791,
0.));
#455=CARTESIAN_POINT('Origin',(-2.58866350577591E-7,12.2443389576083,0.));
#456=CARTESIAN_POINT('',(-2.58866350577591E-7,18.012445187388,14.3));
#457=CARTESIAN_POINT('Origin',(-2.58866350577591E-7,18.012445187388,0.));
#458=CARTESIAN_POINT('',(-14.3000002588664,6.47623272782823,-1.751187E-15));
#459=CARTESIAN_POINT('Origin',(-2.58866350577591E-7,6.47623272782823,0.));
#460=CARTESIAN_POINT('Origin',(-2.58866350577591E-7,18.012445187388,0.));
#461=CARTESIAN_POINT('',(13.2999997411335,19.0124451873882,0.));
#462=CARTESIAN_POINT('Origin',(-2.58866350577591E-7,19.0124451873882,0.));
#463=CARTESIAN_POINT('Origin',(-2.58866350577591E-7,9.01244518738821,0.));
#464=CARTESIAN_POINT('',(9.99999974113365,19.0124451873882,-1.22464679914735E-15));
#465=CARTESIAN_POINT('Origin',(-2.58866350577591E-7,19.0124451873882,0.));
#466=CARTESIAN_POINT('',(9.99999974113365,2.51244518738815,-1.22464679914735E-15));
#467=CARTESIAN_POINT('Origin',(-2.58866350577591E-7,2.51244518738815,0.));
#468=CARTESIAN_POINT('Origin',(-2.58866350577591E-7,0.762445187388039,0.));
#469=CARTESIAN_POINT('',(-9.1000002588666,2.51244518738815,-1.114392E-15));
#470=CARTESIAN_POINT('Origin',(-2.58866350577591E-7,2.51244518738815,0.));
#471=CARTESIAN_POINT('',(-9.1000002588666,-0.987554812611791,-1.114392E-15));
#472=CARTESIAN_POINT('Origin',(-2.58866350577591E-7,-0.987554812611791,
0.));
#473=CARTESIAN_POINT('Origin',(-2.58866350577591E-7,-16.987554812612,0.));
#474=CARTESIAN_POINT('',(-14.3000002588664,-16.987554812612,-1.751187E-15));
#475=CARTESIAN_POINT('Origin',(-2.58866350577591E-7,-16.987554812612,0.));
#476=CARTESIAN_POINT('',(13.2999997411335,-17.987554812612,0.));
#477=CARTESIAN_POINT('Origin',(-2.58866350577591E-7,-17.987554812612,0.));
#478=CARTESIAN_POINT('Origin',(-2.58866350577591E-7,-11.187426006729,0.));
#479=CARTESIAN_POINT('',(-14.3000002588664,-5.38729720084604,-1.751187E-15));
#480=CARTESIAN_POINT('Origin',(-2.58866350577591E-7,-5.38729720084604,0.));
#481=CARTESIAN_POINT('Origin',(-2.58866350577591E-7,6.47623272782766,-3.350855E-15));
#482=CARTESIAN_POINT('',(-14.5000002588665,6.47623272782766,6.00609665440988));
#483=CARTESIAN_POINT('',(-14.5000002588665,6.47623272782766,-6.00609665440988));
#484=CARTESIAN_POINT('',(-14.5000002588665,6.47623272782795,6.00609665440988));
#485=CARTESIAN_POINT('',(-6.00609691327634,6.47623272782766,14.5));
#486=CARTESIAN_POINT('',(-6.00609691327634,6.47623272782795,14.5));
#487=CARTESIAN_POINT('',(6.00609639554364,6.47623272782766,14.5));
#488=CARTESIAN_POINT('',(6.00609639554364,6.47623272782795,14.5));
#489=CARTESIAN_POINT('',(14.4999997411335,6.47623272782766,6.00609665440987));
#490=CARTESIAN_POINT('',(14.4999997411335,6.47623272782795,6.00609665440987));
#491=CARTESIAN_POINT('',(14.4999997411335,6.47623272782766,-6.00609665440989));
#492=CARTESIAN_POINT('',(14.4999997411335,6.47623272782795,-6.00609665440989));
#493=CARTESIAN_POINT('',(6.00609639554364,6.47623272782766,-14.5));
#494=CARTESIAN_POINT('',(6.00609639554364,6.47623272782795,-14.5));
#495=CARTESIAN_POINT('',(-6.00609691327634,6.47623272782766,-14.5));
#496=CARTESIAN_POINT('',(-6.00609691327634,6.47623272782795,-14.5));
#497=CARTESIAN_POINT('',(-14.5000002588665,6.47623272782795,-6.00609665440988));
#498=CARTESIAN_POINT('Origin',(-2.58866350577591E-7,-5.38729720084632,-1.554312E-15));
#499=CARTESIAN_POINT('',(-6.00609691327634,-5.38729720084604,14.5));
#500=CARTESIAN_POINT('',(-14.5000002588665,-5.38729720084604,6.00609665440988));
#501=CARTESIAN_POINT('',(-6.00609691327634,-5.38729720084604,14.5));
#502=CARTESIAN_POINT('',(-14.5000002588665,-5.38729720084604,-6.00609665440988));
#503=CARTESIAN_POINT('',(-14.5000002588665,-5.38729720084604,6.00609665440988));
#504=CARTESIAN_POINT('',(-6.00609691327634,-5.38729720084604,-14.5));
#505=CARTESIAN_POINT('',(-14.5000002588665,-5.38729720084604,-6.00609665440988));
#506=CARTESIAN_POINT('',(6.00609639554364,-5.38729720084604,-14.5));
#507=CARTESIAN_POINT('',(-6.00609691327634,-5.38729720084604,-14.5));
#508=CARTESIAN_POINT('',(14.4999997411335,-5.38729720084604,-6.00609665440989));
#509=CARTESIAN_POINT('',(6.00609639554364,-5.38729720084604,-14.5));
#510=CARTESIAN_POINT('',(14.4999997411335,-5.38729720084604,6.00609665440987));
#511=CARTESIAN_POINT('',(14.4999997411335,-5.38729720084604,-6.00609665440989));
#512=CARTESIAN_POINT('',(6.00609639554364,-5.38729720084604,14.5));
#513=CARTESIAN_POINT('',(14.4999997411335,-5.38729720084604,6.00609665440987));
#514=CARTESIAN_POINT('',(6.00609639554364,-5.38729720084604,14.5));
#515=CARTESIAN_POINT('Origin',(-14.5000002588665,-5.38729720084604,6.00609665440988));
#516=CARTESIAN_POINT('',(-14.5000002588665,-5.38729720084604,-6.00609665440988));
#517=CARTESIAN_POINT('',(-14.5000002588665,-5.38729720084604,6.00609665440988));
#518=CARTESIAN_POINT('Origin',(-14.5000002588665,-5.38729720084604,-6.00609665440988));
#519=CARTESIAN_POINT('',(-6.00609691327634,-5.38729720084604,-14.5));
#520=CARTESIAN_POINT('Origin',(-6.00609691327634,-5.38729720084604,-14.5));
#521=CARTESIAN_POINT('',(6.00609639554364,-5.38729720084604,-14.5));
#522=CARTESIAN_POINT('Origin',(6.00609639554364,-5.38729720084604,-14.5));
#523=CARTESIAN_POINT('',(14.4999997411335,-5.38729720084604,-6.00609665440989));
#524=CARTESIAN_POINT('Origin',(14.4999997411335,-5.38729720084604,-6.00609665440989));
#525=CARTESIAN_POINT('',(14.4999997411335,-5.38729720084604,6.00609665440987));
#526=CARTESIAN_POINT('Origin',(14.4999997411335,-5.38729720084604,6.00609665440987));
#527=CARTESIAN_POINT('',(6.00609639554364,-5.38729720084604,14.5));
#528=CARTESIAN_POINT('Origin',(6.00609639554364,-5.38729720084604,14.5));
#529=CARTESIAN_POINT('',(-6.00609691327634,-5.38729720084604,14.5));
#530=CARTESIAN_POINT('Origin',(-6.00609691327634,-5.38729720084604,14.5));
#531=CARTESIAN_POINT('Origin',(12.0749997411338,-17.987554812612,0.));
#532=CARTESIAN_POINT('Origin',(9.77499974113357,-0.987554812611791,0.));
#533=CARTESIAN_POINT('Origin',(9.54999974113349,2.51244518738815,0.));
#534=CARTESIAN_POINT('Origin',(11.8217779496285,19.0124451873882,0.));
#535=UNCERTAINTY_MEASURE_WITH_UNIT(LENGTH_MEASURE(0.01),#539,
'DISTANCE_ACCURACY_VALUE',
'Maximum model space distance between geometric entities at asserted c
onnectivities');
#536=UNCERTAINTY_MEASURE_WITH_UNIT(LENGTH_MEASURE(1.E-6),#539,
'DISTANCE_ACCURACY_VALUE',
'Maximum model space distance between geometric entities at asserted c
onnectivities');
#537=(
GEOMETRIC_REPRESENTATION_CONTEXT(3)
GLOBAL_UNCERTAINTY_ASSIGNED_CONTEXT((#535))
GLOBAL_UNIT_ASSIGNED_CONTEXT((#539,#542,#540))
REPRESENTATION_CONTEXT('','3D')
);
#538=(
GEOMETRIC_REPRESENTATION_CONTEXT(3)
GLOBAL_UNCERTAINTY_ASSIGNED_CONTEXT((#536))
GLOBAL_UNIT_ASSIGNED_CONTEXT((#539,#542,#540))
REPRESENTATION_CONTEXT('','3D')
);
#539=(
LENGTH_UNIT()
NAMED_UNIT(*)
SI_UNIT(.MILLI.,.METRE.)
);
#540=(
NAMED_UNIT(*)
SI_UNIT($,.STERADIAN.)
SOLID_ANGLE_UNIT()
);
#541=DIMENSIONAL_EXPONENTS(0.,0.,0.,0.,0.,0.,0.);
#542=(
CONVERSION_BASED_UNIT('degree',#544)
NAMED_UNIT(#541)
PLANE_ANGLE_UNIT()
);
#543=(
NAMED_UNIT(*)
PLANE_ANGLE_UNIT()
SI_UNIT($,.RADIAN.)
);
#544=PLANE_ANGLE_MEASURE_WITH_UNIT(PLANE_ANGLE_MEASURE(0.01745329252),#543);
#545=SHAPE_DEFINITION_REPRESENTATION(#546,#547);
#546=PRODUCT_DEFINITION_SHAPE('',$,#549);
#547=SHAPE_REPRESENTATION('',(#323),#537);
#548=PRODUCT_DEFINITION_CONTEXT('part definition',#553,'design');
#549=PRODUCT_DEFINITION('MIFV020012','MIFV020012',#550,#548);
#550=PRODUCT_DEFINITION_FORMATION('',$,#555);
#551=PRODUCT_RELATED_PRODUCT_CATEGORY('MIFV020012','MIFV020012',(#555));
#552=APPLICATION_PROTOCOL_DEFINITION('international standard',
'automotive_design',2009,#553);
#553=APPLICATION_CONTEXT(
'Core Data for Automotive Mechanical Design Process');
#554=PRODUCT_CONTEXT('part definition',#553,'mechanical');
#555=PRODUCT('MIFV020012','MIFV020012',$,(#554));
#556=PRESENTATION_STYLE_ASSIGNMENT((#558));
#557=PRESENTATION_STYLE_ASSIGNMENT((#559));
#558=SURFACE_STYLE_USAGE(.BOTH.,#560);
#559=SURFACE_STYLE_USAGE(.BOTH.,#561);
#560=SURFACE_SIDE_STYLE($,(#562));
#561=SURFACE_SIDE_STYLE($,(#563));
#562=SURFACE_STYLE_FILL_AREA(#564);
#563=SURFACE_STYLE_FILL_AREA(#565);
#564=FILL_AREA_STYLE($,(#566));
#565=FILL_AREA_STYLE($,(#567));
#566=FILL_AREA_STYLE_COLOUR($,#568);
#567=FILL_AREA_STYLE_COLOUR($,#569);
#568=COLOUR_RGB('',0.509803921568627,0.509803921568627,0.588235294117647);
#569=COLOUR_RGB('',1.,0.,0.);
ENDSEC;
END-ISO-10303-21;
