ISO-10303-21;
HEADER;
/* Generated by software containing ST-Developer
 * from STEP Tools, Inc. (www.steptools.com) 
 */

FILE_DESCRIPTION(
/* description */ (''),
/* implementation_level */ '2;1');

FILE_NAME(
/* name */ 'C:\\Users\\Gabriele\\Desktop\\catalogo\\TR40\\TR40075E.stp',

/* time_stamp */ '2016-10-17T15:27:44+02:00',
/* author */ ('Gabriele'),
/* organization */ (''),
/* preprocessor_version */ 'ST-DEVELOPER v16.5',
/* originating_system */ 'Autodesk Inventor 2017',
/* authorisation */ '');

FILE_SCHEMA (('AUTOMOTIVE_DESIGN { 1 0 10303 214 3 1 1 }'));
ENDSEC;

DATA;
#10=MECHANICAL_DESIGN_GEOMETRIC_PRESENTATION_REPRESENTATION('',(#13),#481);
#11=SHAPE_REPRESENTATION_RELATIONSHIP('SRR','None',#490,#12);
#12=ADVANCED_BREP_SHAPE_REPRESENTATION('',(#14),#480);
#13=STYLED_ITEM('',(#499),#14);
#14=MANIFOLD_SOLID_BREP('Solido1',#200);
#15=B_SPLINE_CURVE_WITH_KNOTS('',3,(#333,#334,#335,#336,#337,#338,#339,
#340,#341,#342,#343,#344,#345,#346,#347,#348,#349,#350,#351,#352,#353,#354,
#355,#356,#357,#358,#359,#360,#361,#362,#363,#364,#365,#366,#367,#368,#369,
#370,#371,#372,#373,#374,#375,#376,#377,#378,#379,#380,#381,#382,#383,#384,
#385,#386,#387,#388,#389,#390,#391,#392,#393,#394,#395,#396,#397,#398),
 .UNSPECIFIED.,.T.,.F.,(4,2,2,2,2,2,2,2,2,2,2,2,2,2,2,2,2,2,2,2,2,2,2,2,
2,2,2,2,2,2,2,2,4),(0.,0.356579607604883,0.713159215209765,1.06973882281465,
1.42631843041953,1.78179571424274,2.13727299806595,2.49275028188916,2.84822756571238,
3.20370484953559,3.5591821333588,3.91465941718201,4.27013670100522,4.6267163086101,
4.98329591621498,5.33987552381987,5.69645513142475,6.05303473902963,6.40961434663451,
6.7661939542394,7.12277356184428,7.47825084566749,7.8337281294907,8.18920541331391,
8.54468269713712,8.90015998096033,9.25563726478354,9.61111454860676,9.96659183242997,
10.3231714400348,10.6797510476397,11.0363306552446,11.3929102628495),
 .UNSPECIFIED.);
#16=B_SPLINE_CURVE_WITH_KNOTS('',3,(#409,#410,#411,#412,#413,#414,#415,
#416,#417,#418,#419,#420,#421,#422,#423,#424,#425,#426,#427,#428,#429,#430,
#431,#432,#433,#434,#435,#436,#437,#438,#439,#440,#441,#442,#443,#444,#445,
#446,#447,#448,#449,#450,#451,#452,#453,#454,#455,#456,#457,#458,#459,#460,
#461,#462,#463,#464,#465,#466,#467,#468,#469,#470,#471,#472,#473,#474),
 .UNSPECIFIED.,.T.,.F.,(4,2,2,2,2,2,2,2,2,2,2,2,2,2,2,2,2,2,2,2,2,2,2,2,
2,2,2,2,2,2,2,2,4),(0.,0.495120054659107,0.990240109318213,1.48536016397732,
1.98048021863643,2.4730453819169,2.96561054519738,3.45817570847786,3.95074087175833,
4.44330603503881,4.93587119831929,5.42843636159976,5.92100152488024,6.41612157953935,
6.91124163419845,7.40636168885756,7.90148174351667,8.39660179817577,8.89172185283488,
9.38684190749398,9.88196196215309,10.3745271254336,10.867092288714,11.3596574519945,
11.852222615275,12.3447877785555,12.837352941836,13.3299181051164,13.8224832683969,
14.317603323056,14.8127233777151,15.3078434323742,15.8029634870333),
 .UNSPECIFIED.);
#17=PLANE('',#207);
#18=PLANE('',#214);
#19=PLANE('',#221);
#20=PLANE('',#228);
#21=PLANE('',#231);
#22=PLANE('',#232);
#23=CYLINDRICAL_SURFACE('',#205,37.5);
#24=CYLINDRICAL_SURFACE('',#212,37.5);
#25=CYLINDRICAL_SURFACE('',#219,20.);
#26=CYLINDRICAL_SURFACE('',#223,18.5);
#27=CYLINDRICAL_SURFACE('',#225,36.);
#28=CYLINDRICAL_SURFACE('',#229,25.5);
#29=CYLINDRICAL_SURFACE('',#230,44.5);
#30=FACE_BOUND('',#65,.T.);
#31=FACE_BOUND('',#67,.T.);
#32=FACE_BOUND('',#69,.T.);
#33=FACE_BOUND('',#71,.T.);
#34=FACE_BOUND('',#73,.T.);
#35=FACE_BOUND('',#75,.T.);
#36=FACE_BOUND('',#77,.T.);
#37=FACE_BOUND('',#79,.T.);
#38=FACE_BOUND('',#81,.T.);
#39=FACE_BOUND('',#83,.T.);
#40=FACE_BOUND('',#85,.T.);
#41=FACE_BOUND('',#86,.T.);
#42=FACE_BOUND('',#88,.T.);
#43=FACE_BOUND('',#90,.T.);
#44=FACE_BOUND('',#92,.T.);
#45=FACE_BOUND('',#93,.T.);
#46=FACE_BOUND('',#95,.T.);
#47=FACE_BOUND('',#97,.T.);
#48=FACE_OUTER_BOUND('',#64,.T.);
#49=FACE_OUTER_BOUND('',#66,.T.);
#50=FACE_OUTER_BOUND('',#68,.T.);
#51=FACE_OUTER_BOUND('',#70,.T.);
#52=FACE_OUTER_BOUND('',#72,.T.);
#53=FACE_OUTER_BOUND('',#74,.T.);
#54=FACE_OUTER_BOUND('',#76,.T.);
#55=FACE_OUTER_BOUND('',#78,.T.);
#56=FACE_OUTER_BOUND('',#80,.T.);
#57=FACE_OUTER_BOUND('',#82,.T.);
#58=FACE_OUTER_BOUND('',#84,.T.);
#59=FACE_OUTER_BOUND('',#87,.T.);
#60=FACE_OUTER_BOUND('',#89,.T.);
#61=FACE_OUTER_BOUND('',#91,.T.);
#62=FACE_OUTER_BOUND('',#94,.T.);
#63=FACE_OUTER_BOUND('',#96,.T.);
#64=EDGE_LOOP('',(#147));
#65=EDGE_LOOP('',(#148));
#66=EDGE_LOOP('',(#149));
#67=EDGE_LOOP('',(#150));
#68=EDGE_LOOP('',(#151));
#69=EDGE_LOOP('',(#152));
#70=EDGE_LOOP('',(#153));
#71=EDGE_LOOP('',(#154));
#72=EDGE_LOOP('',(#155));
#73=EDGE_LOOP('',(#156));
#74=EDGE_LOOP('',(#157));
#75=EDGE_LOOP('',(#158));
#76=EDGE_LOOP('',(#159));
#77=EDGE_LOOP('',(#160));
#78=EDGE_LOOP('',(#161));
#79=EDGE_LOOP('',(#162));
#80=EDGE_LOOP('',(#163));
#81=EDGE_LOOP('',(#164));
#82=EDGE_LOOP('',(#165));
#83=EDGE_LOOP('',(#166));
#84=EDGE_LOOP('',(#167));
#85=EDGE_LOOP('',(#168));
#86=EDGE_LOOP('',(#169));
#87=EDGE_LOOP('',(#170));
#88=EDGE_LOOP('',(#171));
#89=EDGE_LOOP('',(#172));
#90=EDGE_LOOP('',(#173));
#91=EDGE_LOOP('',(#174));
#92=EDGE_LOOP('',(#175));
#93=EDGE_LOOP('',(#176));
#94=EDGE_LOOP('',(#177));
#95=EDGE_LOOP('',(#178));
#96=EDGE_LOOP('',(#179));
#97=EDGE_LOOP('',(#180));
#98=CIRCLE('',#203,37.5);
#99=CIRCLE('',#204,38.);
#100=CIRCLE('',#206,37.5);
#101=CIRCLE('',#208,44.5);
#102=CIRCLE('',#210,37.5);
#103=CIRCLE('',#211,38.);
#104=CIRCLE('',#213,37.5);
#105=CIRCLE('',#215,44.5);
#106=CIRCLE('',#217,20.);
#107=CIRCLE('',#218,20.5);
#108=CIRCLE('',#220,20.);
#109=CIRCLE('',#222,25.5);
#110=CIRCLE('',#224,18.5);
#111=CIRCLE('',#226,36.);
#112=CIRCLE('',#227,36.);
#113=VERTEX_POINT('',#299);
#114=VERTEX_POINT('',#301);
#115=VERTEX_POINT('',#304);
#116=VERTEX_POINT('',#307);
#117=VERTEX_POINT('',#310);
#118=VERTEX_POINT('',#312);
#119=VERTEX_POINT('',#315);
#120=VERTEX_POINT('',#318);
#121=VERTEX_POINT('',#321);
#122=VERTEX_POINT('',#323);
#123=VERTEX_POINT('',#326);
#124=VERTEX_POINT('',#329);
#125=VERTEX_POINT('',#332);
#126=VERTEX_POINT('',#399);
#127=VERTEX_POINT('',#402);
#128=VERTEX_POINT('',#404);
#129=VERTEX_POINT('',#408);
#130=EDGE_CURVE('',#113,#113,#98,.T.);
#131=EDGE_CURVE('',#114,#114,#99,.T.);
#132=EDGE_CURVE('',#115,#115,#100,.T.);
#133=EDGE_CURVE('',#116,#116,#101,.T.);
#134=EDGE_CURVE('',#117,#117,#102,.T.);
#135=EDGE_CURVE('',#118,#118,#103,.T.);
#136=EDGE_CURVE('',#119,#119,#104,.T.);
#137=EDGE_CURVE('',#120,#120,#105,.T.);
#138=EDGE_CURVE('',#121,#121,#106,.T.);
#139=EDGE_CURVE('',#122,#122,#107,.T.);
#140=EDGE_CURVE('',#123,#123,#108,.T.);
#141=EDGE_CURVE('',#124,#124,#109,.T.);
#142=EDGE_CURVE('',#125,#125,#15,.T.);
#143=EDGE_CURVE('',#126,#126,#110,.T.);
#144=EDGE_CURVE('',#127,#127,#111,.T.);
#145=EDGE_CURVE('',#128,#128,#112,.T.);
#146=EDGE_CURVE('',#129,#129,#16,.T.);
#147=ORIENTED_EDGE('',*,*,#130,.T.);
#148=ORIENTED_EDGE('',*,*,#131,.T.);
#149=ORIENTED_EDGE('',*,*,#132,.T.);
#150=ORIENTED_EDGE('',*,*,#130,.F.);
#151=ORIENTED_EDGE('',*,*,#133,.T.);
#152=ORIENTED_EDGE('',*,*,#131,.F.);
#153=ORIENTED_EDGE('',*,*,#134,.T.);
#154=ORIENTED_EDGE('',*,*,#135,.T.);
#155=ORIENTED_EDGE('',*,*,#136,.F.);
#156=ORIENTED_EDGE('',*,*,#134,.F.);
#157=ORIENTED_EDGE('',*,*,#137,.T.);
#158=ORIENTED_EDGE('',*,*,#135,.F.);
#159=ORIENTED_EDGE('',*,*,#138,.T.);
#160=ORIENTED_EDGE('',*,*,#139,.T.);
#161=ORIENTED_EDGE('',*,*,#140,.T.);
#162=ORIENTED_EDGE('',*,*,#138,.F.);
#163=ORIENTED_EDGE('',*,*,#141,.F.);
#164=ORIENTED_EDGE('',*,*,#139,.F.);
#165=ORIENTED_EDGE('',*,*,#142,.F.);
#166=ORIENTED_EDGE('',*,*,#143,.F.);
#167=ORIENTED_EDGE('',*,*,#144,.F.);
#168=ORIENTED_EDGE('',*,*,#142,.T.);
#169=ORIENTED_EDGE('',*,*,#145,.F.);
#170=ORIENTED_EDGE('',*,*,#140,.F.);
#171=ORIENTED_EDGE('',*,*,#143,.T.);
#172=ORIENTED_EDGE('',*,*,#141,.T.);
#173=ORIENTED_EDGE('',*,*,#146,.F.);
#174=ORIENTED_EDGE('',*,*,#133,.F.);
#175=ORIENTED_EDGE('',*,*,#137,.F.);
#176=ORIENTED_EDGE('',*,*,#146,.T.);
#177=ORIENTED_EDGE('',*,*,#136,.T.);
#178=ORIENTED_EDGE('',*,*,#145,.T.);
#179=ORIENTED_EDGE('',*,*,#132,.F.);
#180=ORIENTED_EDGE('',*,*,#144,.T.);
#181=TOROIDAL_SURFACE('',#202,38.,0.5);
#182=TOROIDAL_SURFACE('',#209,38.,0.5);
#183=TOROIDAL_SURFACE('',#216,20.5,0.5);
#184=ADVANCED_FACE('',(#48,#30),#181,.T.);
#185=ADVANCED_FACE('',(#49,#31),#23,.F.);
#186=ADVANCED_FACE('',(#50,#32),#17,.T.);
#187=ADVANCED_FACE('',(#51,#33),#182,.T.);
#188=ADVANCED_FACE('',(#52,#34),#24,.F.);
#189=ADVANCED_FACE('',(#53,#35),#18,.F.);
#190=ADVANCED_FACE('',(#54,#36),#183,.T.);
#191=ADVANCED_FACE('',(#55,#37),#25,.F.);
#192=ADVANCED_FACE('',(#56,#38),#19,.T.);
#193=ADVANCED_FACE('',(#57,#39),#26,.F.);
#194=ADVANCED_FACE('',(#58,#40,#41),#27,.F.);
#195=ADVANCED_FACE('',(#59,#42),#20,.T.);
#196=ADVANCED_FACE('',(#60,#43),#28,.T.);
#197=ADVANCED_FACE('',(#61,#44,#45),#29,.T.);
#198=ADVANCED_FACE('',(#62,#46),#21,.F.);
#199=ADVANCED_FACE('',(#63,#47),#22,.T.);
#200=CLOSED_SHELL('',(#184,#185,#186,#187,#188,#189,#190,#191,#192,#193,
#194,#195,#196,#197,#198,#199));
#201=AXIS2_PLACEMENT_3D('placement',#297,#233,#234);
#202=AXIS2_PLACEMENT_3D('',#298,#235,#236);
#203=AXIS2_PLACEMENT_3D('',#300,#237,#238);
#204=AXIS2_PLACEMENT_3D('',#302,#239,#240);
#205=AXIS2_PLACEMENT_3D('',#303,#241,#242);
#206=AXIS2_PLACEMENT_3D('',#305,#243,#244);
#207=AXIS2_PLACEMENT_3D('',#306,#245,#246);
#208=AXIS2_PLACEMENT_3D('',#308,#247,#248);
#209=AXIS2_PLACEMENT_3D('',#309,#249,#250);
#210=AXIS2_PLACEMENT_3D('',#311,#251,#252);
#211=AXIS2_PLACEMENT_3D('',#313,#253,#254);
#212=AXIS2_PLACEMENT_3D('',#314,#255,#256);
#213=AXIS2_PLACEMENT_3D('',#316,#257,#258);
#214=AXIS2_PLACEMENT_3D('',#317,#259,#260);
#215=AXIS2_PLACEMENT_3D('',#319,#261,#262);
#216=AXIS2_PLACEMENT_3D('',#320,#263,#264);
#217=AXIS2_PLACEMENT_3D('',#322,#265,#266);
#218=AXIS2_PLACEMENT_3D('',#324,#267,#268);
#219=AXIS2_PLACEMENT_3D('',#325,#269,#270);
#220=AXIS2_PLACEMENT_3D('',#327,#271,#272);
#221=AXIS2_PLACEMENT_3D('',#328,#273,#274);
#222=AXIS2_PLACEMENT_3D('',#330,#275,#276);
#223=AXIS2_PLACEMENT_3D('',#331,#277,#278);
#224=AXIS2_PLACEMENT_3D('',#400,#279,#280);
#225=AXIS2_PLACEMENT_3D('',#401,#281,#282);
#226=AXIS2_PLACEMENT_3D('',#403,#283,#284);
#227=AXIS2_PLACEMENT_3D('',#405,#285,#286);
#228=AXIS2_PLACEMENT_3D('',#406,#287,#288);
#229=AXIS2_PLACEMENT_3D('',#407,#289,#290);
#230=AXIS2_PLACEMENT_3D('',#475,#291,#292);
#231=AXIS2_PLACEMENT_3D('',#476,#293,#294);
#232=AXIS2_PLACEMENT_3D('',#477,#295,#296);
#233=DIRECTION('axis',(0.,0.,1.));
#234=DIRECTION('refdir',(1.,0.,0.));
#235=DIRECTION('center_axis',(0.,0.,-1.));
#236=DIRECTION('ref_axis',(-1.,0.,0.));
#237=DIRECTION('center_axis',(0.,0.,-1.));
#238=DIRECTION('ref_axis',(-1.,0.,0.));
#239=DIRECTION('center_axis',(0.,0.,1.));
#240=DIRECTION('ref_axis',(-1.,0.,0.));
#241=DIRECTION('center_axis',(0.,0.,-1.));
#242=DIRECTION('ref_axis',(-1.,0.,0.));
#243=DIRECTION('center_axis',(0.,0.,-1.));
#244=DIRECTION('ref_axis',(-1.,0.,0.));
#245=DIRECTION('center_axis',(0.,0.,1.));
#246=DIRECTION('ref_axis',(1.,0.,0.));
#247=DIRECTION('center_axis',(0.,0.,1.));
#248=DIRECTION('ref_axis',(-1.,0.,0.));
#249=DIRECTION('center_axis',(0.,0.,1.));
#250=DIRECTION('ref_axis',(1.,0.,0.));
#251=DIRECTION('center_axis',(0.,0.,1.));
#252=DIRECTION('ref_axis',(-1.,0.,0.));
#253=DIRECTION('center_axis',(0.,0.,-1.));
#254=DIRECTION('ref_axis',(-1.,0.,0.));
#255=DIRECTION('center_axis',(0.,0.,-1.));
#256=DIRECTION('ref_axis',(-1.,0.,0.));
#257=DIRECTION('center_axis',(0.,0.,-1.));
#258=DIRECTION('ref_axis',(-1.,0.,0.));
#259=DIRECTION('center_axis',(0.,0.,1.));
#260=DIRECTION('ref_axis',(1.,0.,0.));
#261=DIRECTION('center_axis',(0.,0.,-1.));
#262=DIRECTION('ref_axis',(-1.,0.,0.));
#263=DIRECTION('center_axis',(0.,-1.,0.));
#264=DIRECTION('ref_axis',(0.,0.,-1.));
#265=DIRECTION('center_axis',(0.,-1.,0.));
#266=DIRECTION('ref_axis',(-1.,0.,0.));
#267=DIRECTION('center_axis',(0.,1.,0.));
#268=DIRECTION('ref_axis',(-1.,0.,0.));
#269=DIRECTION('center_axis',(0.,-1.,0.));
#270=DIRECTION('ref_axis',(-1.,0.,0.));
#271=DIRECTION('center_axis',(0.,-1.,0.));
#272=DIRECTION('ref_axis',(-1.,0.,0.));
#273=DIRECTION('center_axis',(0.,1.,0.));
#274=DIRECTION('ref_axis',(0.,0.,1.));
#275=DIRECTION('center_axis',(0.,-1.,0.));
#276=DIRECTION('ref_axis',(1.,0.,0.));
#277=DIRECTION('center_axis',(0.,-1.,0.));
#278=DIRECTION('ref_axis',(-1.,0.,0.));
#279=DIRECTION('center_axis',(0.,-1.,0.));
#280=DIRECTION('ref_axis',(-1.,0.,0.));
#281=DIRECTION('center_axis',(0.,0.,1.));
#282=DIRECTION('ref_axis',(1.,0.,0.));
#283=DIRECTION('center_axis',(0.,0.,-1.));
#284=DIRECTION('ref_axis',(1.,0.,0.));
#285=DIRECTION('center_axis',(0.,0.,1.));
#286=DIRECTION('ref_axis',(1.,0.,0.));
#287=DIRECTION('center_axis',(0.,1.,0.));
#288=DIRECTION('ref_axis',(0.,0.,1.));
#289=DIRECTION('center_axis',(0.,-1.,0.));
#290=DIRECTION('ref_axis',(1.,0.,0.));
#291=DIRECTION('center_axis',(0.,0.,1.));
#292=DIRECTION('ref_axis',(-1.,0.,0.));
#293=DIRECTION('center_axis',(0.,0.,1.));
#294=DIRECTION('ref_axis',(1.,0.,0.));
#295=DIRECTION('center_axis',(0.,0.,1.));
#296=DIRECTION('ref_axis',(1.,0.,0.));
#297=CARTESIAN_POINT('',(0.,0.,0.));
#298=CARTESIAN_POINT('Origin',(0.,0.,82.5));
#299=CARTESIAN_POINT('',(37.5,-4.59242549680258E-15,82.5));
#300=CARTESIAN_POINT('Origin',(0.,0.,82.5));
#301=CARTESIAN_POINT('',(38.,4.65365783675994E-15,83.));
#302=CARTESIAN_POINT('Origin',(0.,0.,83.));
#303=CARTESIAN_POINT('Origin',(0.,0.,83.));
#304=CARTESIAN_POINT('',(37.5,4.59242549680258E-15,39.));
#305=CARTESIAN_POINT('Origin',(0.,0.,39.));
#306=CARTESIAN_POINT('Origin',(-4.44595297693156E-15,0.,83.));
#307=CARTESIAN_POINT('',(44.5,5.44967825620572E-15,83.));
#308=CARTESIAN_POINT('Origin',(0.,0.,83.));
#309=CARTESIAN_POINT('Origin',(0.,0.,-82.5));
#310=CARTESIAN_POINT('',(37.5,4.59242549680258E-15,-82.5));
#311=CARTESIAN_POINT('Origin',(0.,0.,-82.5));
#312=CARTESIAN_POINT('',(38.,-4.65365783675994E-15,-83.));
#313=CARTESIAN_POINT('Origin',(0.,0.,-83.));
#314=CARTESIAN_POINT('Origin',(0.,0.,-83.));
#315=CARTESIAN_POINT('',(37.5,4.59242549680258E-15,-39.));
#316=CARTESIAN_POINT('Origin',(0.,0.,-39.));
#317=CARTESIAN_POINT('Origin',(-4.44595297693156E-15,0.,-83.));
#318=CARTESIAN_POINT('',(44.5,5.44967825620572E-15,-83.));
#319=CARTESIAN_POINT('Origin',(0.,0.,-83.));
#320=CARTESIAN_POINT('Origin',(0.,64.5,0.));
#321=CARTESIAN_POINT('',(20.,64.5,2.44929359829471E-15));
#322=CARTESIAN_POINT('Origin',(0.,64.5,0.));
#323=CARTESIAN_POINT('',(20.5,65.,-2.51052593825207E-15));
#324=CARTESIAN_POINT('Origin',(0.,65.,0.));
#325=CARTESIAN_POINT('Origin',(0.,65.,0.));
#326=CARTESIAN_POINT('',(20.,39.,-2.44929359829471E-15));
#327=CARTESIAN_POINT('Origin',(0.,39.,0.));
#328=CARTESIAN_POINT('Origin',(1.42125498691048E-15,65.,0.));
#329=CARTESIAN_POINT('',(-25.5,65.,3.12284933782575E-15));
#330=CARTESIAN_POINT('Origin',(0.,65.,0.));
#331=CARTESIAN_POINT('Origin',(0.,39.,0.));
#332=CARTESIAN_POINT('',(18.5,30.8828431333645,-2.77555756156289E-16));
#333=CARTESIAN_POINT('Ctrl Pts',(18.5,30.8828431333645,-2.77555756156289E-16));
#334=CARTESIAN_POINT('Ctrl Pts',(18.5,30.8828431333645,-1.18859869201628));
#335=CARTESIAN_POINT('Ctrl Pts',(18.3836604847641,30.9534837710599,-2.40825519846763));
#336=CARTESIAN_POINT('Ctrl Pts',(17.9039174204892,31.2334255408699,-4.81751048899933));
#337=CARTESIAN_POINT('Ctrl Pts',(17.5407180420211,31.4422354297629,-6.00720697786632));
#338=CARTESIAN_POINT('Ctrl Pts',(16.5908779710941,31.9536173809761,-8.27684544427524));
#339=CARTESIAN_POINT('Ctrl Pts',(16.0034796727857,32.2559257371551,-9.35901189218597));
#340=CARTESIAN_POINT('Ctrl Pts',(14.6539874410206,32.8909829398182,-11.3561929140883));
#341=CARTESIAN_POINT('Ctrl Pts',(13.8916921652336,33.2231426044341,-12.2712587386686));
#342=CARTESIAN_POINT('Ctrl Pts',(12.2737634280348,33.8541929182634,-13.8891874758675));
#343=CARTESIAN_POINT('Ctrl Pts',(11.3599454159479,34.1765916389303,-14.6511182605179));
#344=CARTESIAN_POINT('Ctrl Pts',(9.36227549226317,34.7769402548843,-16.0016069141105));
#345=CARTESIAN_POINT('Ctrl Pts',(8.27835871247879,35.0544392020973,-16.59026925354));
#346=CARTESIAN_POINT('Ctrl Pts',(6.00503333264846,35.5145675337581,-17.5416031194373));
#347=CARTESIAN_POINT('Ctrl Pts',(4.8134382441179,35.6973053722203,-17.9050356561312));
#348=CARTESIAN_POINT('Ctrl Pts',(2.40340765040607,35.9400950226482,-18.384317263626));
#349=CARTESIAN_POINT('Ctrl Pts',(1.1849242794107,36.,-18.5));
#350=CARTESIAN_POINT('Ctrl Pts',(-1.1849242794107,36.,-18.5));
#351=CARTESIAN_POINT('Ctrl Pts',(-2.40340765040607,35.9400950226482,-18.384317263626));
#352=CARTESIAN_POINT('Ctrl Pts',(-4.8134382441179,35.6973053722203,-17.9050356561312));
#353=CARTESIAN_POINT('Ctrl Pts',(-6.00503333264846,35.5145675337581,-17.5416031194373));
#354=CARTESIAN_POINT('Ctrl Pts',(-8.27835871247879,35.0544392020973,-16.59026925354));
#355=CARTESIAN_POINT('Ctrl Pts',(-9.36227549226317,34.7769402548843,-16.0016069141105));
#356=CARTESIAN_POINT('Ctrl Pts',(-11.3599454159479,34.1765916389303,-14.6511182605179));
#357=CARTESIAN_POINT('Ctrl Pts',(-12.2737634280348,33.8541929182634,-13.8891874758675));
#358=CARTESIAN_POINT('Ctrl Pts',(-13.8916921652336,33.2231426044341,-12.2712587386686));
#359=CARTESIAN_POINT('Ctrl Pts',(-14.6539874410206,32.8909829398182,-11.3561929140883));
#360=CARTESIAN_POINT('Ctrl Pts',(-16.0034796727857,32.2559257371551,-9.35901189218596));
#361=CARTESIAN_POINT('Ctrl Pts',(-16.5908779710941,31.9536173809761,-8.27684544427524));
#362=CARTESIAN_POINT('Ctrl Pts',(-17.5407180420211,31.4422354297629,-6.00720697786632));
#363=CARTESIAN_POINT('Ctrl Pts',(-17.9039174204892,31.2334255408699,-4.81751048899932));
#364=CARTESIAN_POINT('Ctrl Pts',(-18.3836604847641,30.9534837710599,-2.40825519846763));
#365=CARTESIAN_POINT('Ctrl Pts',(-18.5,30.8828431333645,-1.18859869201628));
#366=CARTESIAN_POINT('Ctrl Pts',(-18.5,30.8828431333645,1.18859869201628));
#367=CARTESIAN_POINT('Ctrl Pts',(-18.3836604847641,30.9534837710599,2.40825519846764));
#368=CARTESIAN_POINT('Ctrl Pts',(-17.9039174204892,31.2334255408699,4.81751048899933));
#369=CARTESIAN_POINT('Ctrl Pts',(-17.5407180420211,31.4422354297629,6.00720697786632));
#370=CARTESIAN_POINT('Ctrl Pts',(-16.5908779710941,31.9536173809761,8.27684544427524));
#371=CARTESIAN_POINT('Ctrl Pts',(-16.0034796727857,32.2559257371551,9.35901189218597));
#372=CARTESIAN_POINT('Ctrl Pts',(-14.6539874410206,32.8909829398182,11.3561929140883));
#373=CARTESIAN_POINT('Ctrl Pts',(-13.8916921652336,33.2231426044341,12.2712587386686));
#374=CARTESIAN_POINT('Ctrl Pts',(-12.2737634280348,33.8541929182634,13.8891874758675));
#375=CARTESIAN_POINT('Ctrl Pts',(-11.3599454159479,34.1765916389303,14.6511182605179));
#376=CARTESIAN_POINT('Ctrl Pts',(-9.36227549226318,34.7769402548843,16.0016069141105));
#377=CARTESIAN_POINT('Ctrl Pts',(-8.27835871247879,35.0544392020973,16.59026925354));
#378=CARTESIAN_POINT('Ctrl Pts',(-6.00503333264847,35.5145675337581,17.5416031194373));
#379=CARTESIAN_POINT('Ctrl Pts',(-4.8134382441179,35.6973053722203,17.9050356561312));
#380=CARTESIAN_POINT('Ctrl Pts',(-2.40340765040608,35.9400950226482,18.384317263626));
#381=CARTESIAN_POINT('Ctrl Pts',(-1.1849242794107,36.,18.5));
#382=CARTESIAN_POINT('Ctrl Pts',(1.1849242794107,36.,18.5));
#383=CARTESIAN_POINT('Ctrl Pts',(2.40340765040607,35.9400950226482,18.384317263626));
#384=CARTESIAN_POINT('Ctrl Pts',(4.8134382441179,35.6973053722203,17.9050356561312));
#385=CARTESIAN_POINT('Ctrl Pts',(6.00503333264846,35.5145675337581,17.5416031194373));
#386=CARTESIAN_POINT('Ctrl Pts',(8.27835871247879,35.0544392020973,16.59026925354));
#387=CARTESIAN_POINT('Ctrl Pts',(9.36227549226317,34.7769402548843,16.0016069141105));
#388=CARTESIAN_POINT('Ctrl Pts',(11.3599454159479,34.1765916389303,14.6511182605179));
#389=CARTESIAN_POINT('Ctrl Pts',(12.2737634280348,33.8541929182634,13.8891874758675));
#390=CARTESIAN_POINT('Ctrl Pts',(13.8916921652336,33.2231426044341,12.2712587386686));
#391=CARTESIAN_POINT('Ctrl Pts',(14.6539874410206,32.8909829398182,11.3561929140883));
#392=CARTESIAN_POINT('Ctrl Pts',(16.0034796727857,32.2559257371551,9.35901189218598));
#393=CARTESIAN_POINT('Ctrl Pts',(16.5908779710941,31.9536173809761,8.27684544427525));
#394=CARTESIAN_POINT('Ctrl Pts',(17.5407180420211,31.4422354297629,6.00720697786632));
#395=CARTESIAN_POINT('Ctrl Pts',(17.9039174204892,31.2334255408699,4.81751048899932));
#396=CARTESIAN_POINT('Ctrl Pts',(18.3836604847641,30.9534837710599,2.40825519846763));
#397=CARTESIAN_POINT('Ctrl Pts',(18.5,30.8828431333645,1.18859869201627));
#398=CARTESIAN_POINT('Ctrl Pts',(18.5,30.8828431333645,2.77555756156289E-16));
#399=CARTESIAN_POINT('',(18.5,39.,-2.2655965784226E-15));
#400=CARTESIAN_POINT('Origin',(0.,39.,0.));
#401=CARTESIAN_POINT('Origin',(0.,0.,-39.));
#402=CARTESIAN_POINT('',(-36.,4.40872847693047E-15,39.));
#403=CARTESIAN_POINT('Origin',(0.,0.,39.));
#404=CARTESIAN_POINT('',(-36.,4.40872847693047E-15,-39.));
#405=CARTESIAN_POINT('Origin',(0.,0.,-39.));
#406=CARTESIAN_POINT('Origin',(-9.4425648294133E-16,39.,0.));
#407=CARTESIAN_POINT('Origin',(0.,65.,0.));
#408=CARTESIAN_POINT('',(25.5,36.4691650576209,8.32667268468867E-16));
#409=CARTESIAN_POINT('Ctrl Pts',(25.5,36.4691650576209,8.32667268468867E-16));
#410=CARTESIAN_POINT('Ctrl Pts',(25.5,36.4691650576209,1.65040018219702));
#411=CARTESIAN_POINT('Ctrl Pts',(25.3373440640685,36.5845724599319,3.33888520541073));
#412=CARTESIAN_POINT('Ctrl Pts',(24.6715670589915,37.0368157929793,6.66655372978288));
#413=CARTESIAN_POINT('Ctrl Pts',(24.1687736421082,37.3726680374406,8.30593638846922));
#414=CARTESIAN_POINT('Ctrl Pts',(22.8580484098667,38.188419882869,11.4292607905492));
#415=CARTESIAN_POINT('Ctrl Pts',(22.0490579074776,38.6678311174291,12.9163932190901));
#416=CARTESIAN_POINT('Ctrl Pts',(20.1926186753639,39.6688828771637,15.6605338282785));
#417=CARTESIAN_POINT('Ctrl Pts',(19.1448250530658,40.1896676365792,16.9176207874481));
#418=CARTESIAN_POINT('Ctrl Pts',(16.92336713616,41.174240527348,19.1390787043539));
#419=CARTESIAN_POINT('Ctrl Pts',(15.6692155228674,41.6752483460374,20.1859632273847));
#420=CARTESIAN_POINT('Ctrl Pts',(12.9241704713278,42.6065306894515,22.0445740340209));
#421=CARTESIAN_POINT('Ctrl Pts',(11.4331538405507,43.0361679026725,22.8564376448464));
#422=CARTESIAN_POINT('Ctrl Pts',(8.30140209177068,43.7483197789062,24.1706535064688));
#423=CARTESIAN_POINT('Ctrl Pts',(6.65753639407283,44.0310606948588,24.6740645161299));
#424=CARTESIAN_POINT('Ctrl Pts',(3.32781457755181,44.4070123617918,25.338861472793));
#425=CARTESIAN_POINT('Ctrl Pts',(1.64188387760159,44.5,25.5));
#426=CARTESIAN_POINT('Ctrl Pts',(-1.64188387760159,44.5,25.5));
#427=CARTESIAN_POINT('Ctrl Pts',(-3.32781457755181,44.4070123617918,25.338861472793));
#428=CARTESIAN_POINT('Ctrl Pts',(-6.65753639407283,44.0310606948588,24.6740645161299));
#429=CARTESIAN_POINT('Ctrl Pts',(-8.30140209177068,43.7483197789062,24.1706535064688));
#430=CARTESIAN_POINT('Ctrl Pts',(-11.4331538405507,43.0361679026725,22.8564376448464));
#431=CARTESIAN_POINT('Ctrl Pts',(-12.9241704713278,42.6065306894515,22.0445740340209));
#432=CARTESIAN_POINT('Ctrl Pts',(-15.6692155228674,41.6752483460374,20.1859632273847));
#433=CARTESIAN_POINT('Ctrl Pts',(-16.92336713616,41.174240527348,19.1390787043539));
#434=CARTESIAN_POINT('Ctrl Pts',(-19.1448250530658,40.1896676365792,16.9176207874481));
#435=CARTESIAN_POINT('Ctrl Pts',(-20.1926186753639,39.6688828771637,15.6605338282785));
#436=CARTESIAN_POINT('Ctrl Pts',(-22.0490579074776,38.6678311174291,12.9163932190901));
#437=CARTESIAN_POINT('Ctrl Pts',(-22.8580484098667,38.188419882869,11.4292607905492));
#438=CARTESIAN_POINT('Ctrl Pts',(-24.1687736421082,37.3726680374406,8.30593638846922));
#439=CARTESIAN_POINT('Ctrl Pts',(-24.6715670589915,37.0368157929793,6.66655372978289));
#440=CARTESIAN_POINT('Ctrl Pts',(-25.3373440640685,36.5845724599319,3.33888520541073));
#441=CARTESIAN_POINT('Ctrl Pts',(-25.5,36.4691650576209,1.65040018219702));
#442=CARTESIAN_POINT('Ctrl Pts',(-25.5,36.4691650576209,-1.65040018219702));
#443=CARTESIAN_POINT('Ctrl Pts',(-25.3373440640685,36.5845724599319,-3.33888520541073));
#444=CARTESIAN_POINT('Ctrl Pts',(-24.6715670589915,37.0368157929793,-6.66655372978288));
#445=CARTESIAN_POINT('Ctrl Pts',(-24.1687736421082,37.3726680374406,-8.30593638846922));
#446=CARTESIAN_POINT('Ctrl Pts',(-22.8580484098667,38.188419882869,-11.4292607905492));
#447=CARTESIAN_POINT('Ctrl Pts',(-22.0490579074776,38.6678311174291,-12.91639321909));
#448=CARTESIAN_POINT('Ctrl Pts',(-20.1926186753639,39.6688828771637,-15.6605338282785));
#449=CARTESIAN_POINT('Ctrl Pts',(-19.1448250530658,40.1896676365792,-16.9176207874481));
#450=CARTESIAN_POINT('Ctrl Pts',(-16.92336713616,41.174240527348,-19.1390787043539));
#451=CARTESIAN_POINT('Ctrl Pts',(-15.6692155228674,41.6752483460374,-20.1859632273847));
#452=CARTESIAN_POINT('Ctrl Pts',(-12.9241704713278,42.6065306894515,-22.0445740340209));
#453=CARTESIAN_POINT('Ctrl Pts',(-11.4331538405507,43.0361679026725,-22.8564376448464));
#454=CARTESIAN_POINT('Ctrl Pts',(-8.30140209177069,43.7483197789062,-24.1706535064688));
#455=CARTESIAN_POINT('Ctrl Pts',(-6.65753639407284,44.0310606948588,-24.6740645161299));
#456=CARTESIAN_POINT('Ctrl Pts',(-3.32781457755182,44.4070123617918,-25.338861472793));
#457=CARTESIAN_POINT('Ctrl Pts',(-1.6418838776016,44.5,-25.5));
#458=CARTESIAN_POINT('Ctrl Pts',(1.64188387760158,44.5,-25.5));
#459=CARTESIAN_POINT('Ctrl Pts',(3.3278145775518,44.4070123617918,-25.338861472793));
#460=CARTESIAN_POINT('Ctrl Pts',(6.65753639407282,44.0310606948588,-24.6740645161299));
#461=CARTESIAN_POINT('Ctrl Pts',(8.30140209177067,43.7483197789062,-24.1706535064688));
#462=CARTESIAN_POINT('Ctrl Pts',(11.4331538405507,43.0361679026725,-22.8564376448464));
#463=CARTESIAN_POINT('Ctrl Pts',(12.9241704713278,42.6065306894515,-22.0445740340209));
#464=CARTESIAN_POINT('Ctrl Pts',(15.6692155228674,41.6752483460374,-20.1859632273847));
#465=CARTESIAN_POINT('Ctrl Pts',(16.92336713616,41.174240527348,-19.1390787043539));
#466=CARTESIAN_POINT('Ctrl Pts',(19.1448250530658,40.1896676365792,-16.9176207874481));
#467=CARTESIAN_POINT('Ctrl Pts',(20.1926186753639,39.6688828771637,-15.6605338282785));
#468=CARTESIAN_POINT('Ctrl Pts',(22.0490579074775,38.6678311174291,-12.9163932190901));
#469=CARTESIAN_POINT('Ctrl Pts',(22.8580484098667,38.188419882869,-11.4292607905492));
#470=CARTESIAN_POINT('Ctrl Pts',(24.1687736421082,37.3726680374406,-8.30593638846922));
#471=CARTESIAN_POINT('Ctrl Pts',(24.6715670589915,37.0368157929793,-6.66655372978288));
#472=CARTESIAN_POINT('Ctrl Pts',(25.3373440640685,36.5845724599319,-3.33888520541073));
#473=CARTESIAN_POINT('Ctrl Pts',(25.5,36.4691650576209,-1.65040018219702));
#474=CARTESIAN_POINT('Ctrl Pts',(25.5,36.4691650576209,-5.55111512312578E-16));
#475=CARTESIAN_POINT('Origin',(0.,0.,0.));
#476=CARTESIAN_POINT('Origin',(-3.54066983922288E-15,-7.89491928622334E-16,
-39.));
#477=CARTESIAN_POINT('Origin',(-3.54066983922288E-15,-7.89491928622334E-16,
39.));
#478=UNCERTAINTY_MEASURE_WITH_UNIT(LENGTH_MEASURE(0.01),#482,
'DISTANCE_ACCURACY_VALUE',
'Maximum model space distance between geometric entities at asserted c
onnectivities');
#479=UNCERTAINTY_MEASURE_WITH_UNIT(LENGTH_MEASURE(1.E-6),#482,
'DISTANCE_ACCURACY_VALUE',
'Maximum model space distance between geometric entities at asserted c
onnectivities');
#480=(
GEOMETRIC_REPRESENTATION_CONTEXT(3)
GLOBAL_UNCERTAINTY_ASSIGNED_CONTEXT((#478))
GLOBAL_UNIT_ASSIGNED_CONTEXT((#482,#485,#483))
REPRESENTATION_CONTEXT('','3D')
);
#481=(
GEOMETRIC_REPRESENTATION_CONTEXT(3)
GLOBAL_UNCERTAINTY_ASSIGNED_CONTEXT((#479))
GLOBAL_UNIT_ASSIGNED_CONTEXT((#482,#485,#483))
REPRESENTATION_CONTEXT('','3D')
);
#482=(
LENGTH_UNIT()
NAMED_UNIT(*)
SI_UNIT(.MILLI.,.METRE.)
);
#483=(
NAMED_UNIT(*)
SI_UNIT($,.STERADIAN.)
SOLID_ANGLE_UNIT()
);
#484=DIMENSIONAL_EXPONENTS(0.,0.,0.,0.,0.,0.,0.);
#485=(
CONVERSION_BASED_UNIT('degree',#487)
NAMED_UNIT(#484)
PLANE_ANGLE_UNIT()
);
#486=(
NAMED_UNIT(*)
PLANE_ANGLE_UNIT()
SI_UNIT($,.RADIAN.)
);
#487=PLANE_ANGLE_MEASURE_WITH_UNIT(PLANE_ANGLE_MEASURE(0.01745329252),#486);
#488=SHAPE_DEFINITION_REPRESENTATION(#489,#490);
#489=PRODUCT_DEFINITION_SHAPE('',$,#492);
#490=SHAPE_REPRESENTATION('',(#201),#480);
#491=PRODUCT_DEFINITION_CONTEXT('part definition',#496,'design');
#492=PRODUCT_DEFINITION('TR40075E','TR40075E',#493,#491);
#493=PRODUCT_DEFINITION_FORMATION('',$,#498);
#494=PRODUCT_RELATED_PRODUCT_CATEGORY('TR40075E','TR40075E',(#498));
#495=APPLICATION_PROTOCOL_DEFINITION('international standard',
'automotive_design',2009,#496);
#496=APPLICATION_CONTEXT(
'Core Data for Automotive Mechanical Design Process');
#497=PRODUCT_CONTEXT('part definition',#496,'mechanical');
#498=PRODUCT('TR40075E','TR40075E',$,(#497));
#499=PRESENTATION_STYLE_ASSIGNMENT((#500));
#500=SURFACE_STYLE_USAGE(.BOTH.,#501);
#501=SURFACE_SIDE_STYLE('',(#502));
#502=SURFACE_STYLE_FILL_AREA(#503);
#503=FILL_AREA_STYLE('',(#504));
#504=FILL_AREA_STYLE_COLOUR('',#505);
#505=COLOUR_RGB('',0.8,0.8,0.8);
ENDSEC;
END-ISO-10303-21;
