ISO-10303-21;
HEADER;
/* Generated by software containing ST-Developer
 * from STEP Tools, Inc. (www.steptools.com) 
 */

FILE_DESCRIPTION(
/* description */ (''),
/* implementation_level */ '2;1');

FILE_NAME(
/* name */ 'C:\\Users\\mdebiase\\Desktop\\baricentro\\YIV063.ipt.stp',
/* time_stamp */ '2014-05-27T15:25:38+02:00',
/* author */ ('bfaro'),
/* organization */ (''),
/* preprocessor_version */ 'ST-DEVELOPER v15.2',
/* originating_system */ 'Autodesk Inventor 2014',
/* authorisation */ '');

FILE_SCHEMA (('AUTOMOTIVE_DESIGN { 1 0 10303 214 3 1 1 }'));
ENDSEC;

DATA;
#10=SHAPE_REPRESENTATION_RELATIONSHIP('SRR','None',#323,#11);
#11=ADVANCED_BREP_SHAPE_REPRESENTATION($,(#176),#314);
#12=STYLED_ITEM($,(#331),#176);
#13=PLANE($,#182);
#14=PLANE($,#189);
#15=PLANE($,#203);
#16=PLANE($,#204);
#17=PLANE($,#205);
#18=PLANE($,#206);
#19=FACE_BOUND($,#52,.T.);
#20=FACE_BOUND($,#53,.T.);
#21=FACE_BOUND($,#54,.T.);
#22=FACE_BOUND($,#56,.T.);
#23=FACE_BOUND($,#57,.T.);
#24=FACE_BOUND($,#59,.T.);
#25=FACE_BOUND($,#60,.T.);
#26=FACE_BOUND($,#61,.T.);
#27=FACE_BOUND($,#62,.T.);
#28=FACE_BOUND($,#63,.T.);
#29=FACE_BOUND($,#64,.T.);
#30=FACE_BOUND($,#66,.T.);
#31=FACE_BOUND($,#68,.T.);
#32=FACE_BOUND($,#70,.T.);
#33=FACE_BOUND($,#71,.T.);
#34=FACE_BOUND($,#72,.T.);
#35=FACE_BOUND($,#73,.T.);
#36=FACE_BOUND($,#74,.T.);
#37=FACE_BOUND($,#76,.T.);
#38=FACE_BOUND($,#78,.T.);
#39=ELLIPSE($,#180,33.012962108918,30.5);
#40=ELLIPSE($,#181,79.7003408574591,30.5);
#41=ELLIPSE($,#192,95.3790964359757,36.5000000000001);
#42=ELLIPSE($,#193,39.5073153106724,36.5);
#43=FACE_OUTER_BOUND($,#51,.T.);
#44=FACE_OUTER_BOUND($,#55,.T.);
#45=FACE_OUTER_BOUND($,#58,.T.);
#46=FACE_OUTER_BOUND($,#65,.T.);
#47=FACE_OUTER_BOUND($,#67,.T.);
#48=FACE_OUTER_BOUND($,#69,.T.);
#49=FACE_OUTER_BOUND($,#75,.T.);
#50=FACE_OUTER_BOUND($,#77,.T.);
#51=EDGE_LOOP($,(#123));
#52=EDGE_LOOP($,(#124,#125));
#53=EDGE_LOOP($,(#126));
#54=EDGE_LOOP($,(#127));
#55=EDGE_LOOP($,(#128));
#56=EDGE_LOOP($,(#129,#130));
#57=EDGE_LOOP($,(#131));
#58=EDGE_LOOP($,(#132));
#59=EDGE_LOOP($,(#133));
#60=EDGE_LOOP($,(#134));
#61=EDGE_LOOP($,(#135));
#62=EDGE_LOOP($,(#136,#137));
#63=EDGE_LOOP($,(#138));
#64=EDGE_LOOP($,(#139));
#65=EDGE_LOOP($,(#140));
#66=EDGE_LOOP($,(#141));
#67=EDGE_LOOP($,(#142));
#68=EDGE_LOOP($,(#143));
#69=EDGE_LOOP($,(#144,#145));
#70=EDGE_LOOP($,(#146));
#71=EDGE_LOOP($,(#147));
#72=EDGE_LOOP($,(#148));
#73=EDGE_LOOP($,(#149));
#74=EDGE_LOOP($,(#150));
#75=EDGE_LOOP($,(#151));
#76=EDGE_LOOP($,(#152));
#77=EDGE_LOOP($,(#153));
#78=EDGE_LOOP($,(#154));
#79=CIRCLE($,#179,30.5);
#80=CIRCLE($,#183,30.5);
#81=CIRCLE($,#184,31.5);
#82=CIRCLE($,#186,30.5);
#83=CIRCLE($,#188,31.5);
#84=CIRCLE($,#190,36.5);
#85=CIRCLE($,#194,36.5);
#86=CIRCLE($,#196,31.5);
#87=CIRCLE($,#197,31.5);
#88=CIRCLE($,#199,31.5);
#89=CIRCLE($,#200,31.5);
#90=CIRCLE($,#202,36.5);
#91=VERTEX_POINT($,#269);
#92=VERTEX_POINT($,#271);
#93=VERTEX_POINT($,#272);
#94=VERTEX_POINT($,#276);
#95=VERTEX_POINT($,#278);
#96=VERTEX_POINT($,#281);
#97=VERTEX_POINT($,#284);
#98=VERTEX_POINT($,#287);
#99=VERTEX_POINT($,#290);
#100=VERTEX_POINT($,#291);
#101=VERTEX_POINT($,#294);
#102=VERTEX_POINT($,#297);
#103=VERTEX_POINT($,#299);
#104=VERTEX_POINT($,#302);
#105=VERTEX_POINT($,#304);
#106=VERTEX_POINT($,#307);
#107=EDGE_CURVE($,#91,#91,#79,.T.);
#108=EDGE_CURVE($,#92,#93,#39,.T.);
#109=EDGE_CURVE($,#93,#92,#40,.T.);
#110=EDGE_CURVE($,#94,#94,#80,.T.);
#111=EDGE_CURVE($,#95,#95,#81,.T.);
#112=EDGE_CURVE($,#96,#96,#82,.T.);
#113=EDGE_CURVE($,#97,#97,#83,.T.);
#114=EDGE_CURVE($,#98,#98,#84,.T.);
#115=EDGE_CURVE($,#99,#100,#41,.T.);
#116=EDGE_CURVE($,#100,#99,#42,.T.);
#117=EDGE_CURVE($,#101,#101,#85,.T.);
#118=EDGE_CURVE($,#102,#102,#86,.T.);
#119=EDGE_CURVE($,#103,#103,#87,.T.);
#120=EDGE_CURVE($,#104,#104,#88,.T.);
#121=EDGE_CURVE($,#105,#105,#89,.T.);
#122=EDGE_CURVE($,#106,#106,#90,.T.);
#123=ORIENTED_EDGE($,*,*,#107,.F.);
#124=ORIENTED_EDGE($,*,*,#108,.F.);
#125=ORIENTED_EDGE($,*,*,#109,.F.);
#126=ORIENTED_EDGE($,*,*,#110,.T.);
#127=ORIENTED_EDGE($,*,*,#111,.T.);
#128=ORIENTED_EDGE($,*,*,#112,.F.);
#129=ORIENTED_EDGE($,*,*,#108,.T.);
#130=ORIENTED_EDGE($,*,*,#109,.T.);
#131=ORIENTED_EDGE($,*,*,#110,.F.);
#132=ORIENTED_EDGE($,*,*,#111,.F.);
#133=ORIENTED_EDGE($,*,*,#113,.F.);
#134=ORIENTED_EDGE($,*,*,#113,.T.);
#135=ORIENTED_EDGE($,*,*,#114,.T.);
#136=ORIENTED_EDGE($,*,*,#115,.F.);
#137=ORIENTED_EDGE($,*,*,#116,.F.);
#138=ORIENTED_EDGE($,*,*,#117,.T.);
#139=ORIENTED_EDGE($,*,*,#114,.F.);
#140=ORIENTED_EDGE($,*,*,#118,.F.);
#141=ORIENTED_EDGE($,*,*,#119,.T.);
#142=ORIENTED_EDGE($,*,*,#120,.F.);
#143=ORIENTED_EDGE($,*,*,#121,.T.);
#144=ORIENTED_EDGE($,*,*,#116,.T.);
#145=ORIENTED_EDGE($,*,*,#115,.T.);
#146=ORIENTED_EDGE($,*,*,#122,.T.);
#147=ORIENTED_EDGE($,*,*,#107,.T.);
#148=ORIENTED_EDGE($,*,*,#119,.F.);
#149=ORIENTED_EDGE($,*,*,#112,.T.);
#150=ORIENTED_EDGE($,*,*,#121,.F.);
#151=ORIENTED_EDGE($,*,*,#117,.F.);
#152=ORIENTED_EDGE($,*,*,#120,.T.);
#153=ORIENTED_EDGE($,*,*,#122,.F.);
#154=ORIENTED_EDGE($,*,*,#118,.T.);
#155=CYLINDRICAL_SURFACE($,#178,30.5);
#156=CYLINDRICAL_SURFACE($,#185,30.5);
#157=CYLINDRICAL_SURFACE($,#187,31.5);
#158=CYLINDRICAL_SURFACE($,#191,36.5);
#159=CYLINDRICAL_SURFACE($,#195,31.5);
#160=CYLINDRICAL_SURFACE($,#198,31.5);
#161=CYLINDRICAL_SURFACE($,#201,36.5);
#162=ADVANCED_FACE($,(#43,#19),#155,.F.);
#163=ADVANCED_FACE($,(#20,#21),#13,.T.);
#164=ADVANCED_FACE($,(#44,#22,#23),#156,.F.);
#165=ADVANCED_FACE($,(#45,#24),#157,.F.);
#166=ADVANCED_FACE($,(#25,#26),#14,.T.);
#167=ADVANCED_FACE($,(#27,#28,#29),#158,.T.);
#168=ADVANCED_FACE($,(#46,#30),#159,.F.);
#169=ADVANCED_FACE($,(#47,#31),#160,.F.);
#170=ADVANCED_FACE($,(#48,#32),#161,.T.);
#171=ADVANCED_FACE($,(#33,#34),#15,.T.);
#172=ADVANCED_FACE($,(#35,#36),#16,.T.);
#173=ADVANCED_FACE($,(#49,#37),#17,.T.);
#174=ADVANCED_FACE($,(#50,#38),#18,.T.);
#175=CLOSED_SHELL($,(#162,#163,#164,#165,#166,#167,#168,#169,#170,#171,
#172,#173,#174));
#176=MANIFOLD_SOLID_BREP('Solido1',#175);
#177=AXIS2_PLACEMENT_3D('placement',#267,#207,#208);
#178=AXIS2_PLACEMENT_3D($,#268,#209,#210);
#179=AXIS2_PLACEMENT_3D($,#270,#211,#212);
#180=AXIS2_PLACEMENT_3D($,#273,#213,#214);
#181=AXIS2_PLACEMENT_3D($,#274,#215,#216);
#182=AXIS2_PLACEMENT_3D($,#275,#217,#218);
#183=AXIS2_PLACEMENT_3D($,#277,#219,#220);
#184=AXIS2_PLACEMENT_3D($,#279,#221,#222);
#185=AXIS2_PLACEMENT_3D($,#280,#223,#224);
#186=AXIS2_PLACEMENT_3D($,#282,#225,#226);
#187=AXIS2_PLACEMENT_3D($,#283,#227,#228);
#188=AXIS2_PLACEMENT_3D($,#285,#229,#230);
#189=AXIS2_PLACEMENT_3D($,#286,#231,#232);
#190=AXIS2_PLACEMENT_3D($,#288,#233,#234);
#191=AXIS2_PLACEMENT_3D($,#289,#235,#236);
#192=AXIS2_PLACEMENT_3D($,#292,#237,#238);
#193=AXIS2_PLACEMENT_3D($,#293,#239,#240);
#194=AXIS2_PLACEMENT_3D($,#295,#241,#242);
#195=AXIS2_PLACEMENT_3D($,#296,#243,#244);
#196=AXIS2_PLACEMENT_3D($,#298,#245,#246);
#197=AXIS2_PLACEMENT_3D($,#300,#247,#248);
#198=AXIS2_PLACEMENT_3D($,#301,#249,#250);
#199=AXIS2_PLACEMENT_3D($,#303,#251,#252);
#200=AXIS2_PLACEMENT_3D($,#305,#253,#254);
#201=AXIS2_PLACEMENT_3D($,#306,#255,#256);
#202=AXIS2_PLACEMENT_3D($,#308,#257,#258);
#203=AXIS2_PLACEMENT_3D($,#309,#259,#260);
#204=AXIS2_PLACEMENT_3D($,#310,#261,#262);
#205=AXIS2_PLACEMENT_3D($,#311,#263,#264);
#206=AXIS2_PLACEMENT_3D($,#312,#265,#266);
#207=DIRECTION('axis',(0.,0.,1.));
#208=DIRECTION('refdir',(1.,0.,0.));
#209=DIRECTION('center_axis',(-0.707106781186548,6.84218324648804E-017,
-0.707106781186547));
#210=DIRECTION('ref_axis',(-0.707106781186547,-9.96242541502363E-033,0.707106781186548));
#211=DIRECTION('center_axis',(-0.707106781186548,6.86588E-017,-0.707106781186547));
#212=DIRECTION('ref_axis',(-0.707106781186547,-9.96242541502363E-033,0.707106781186548));
#213=DIRECTION('center_axis',(0.923879532511287,-5.57198633120401E-017,
0.382683432365089));
#214=DIRECTION('ref_axis',(-0.382683432365089,-2.61839016963695E-017,0.923879532511287));
#215=DIRECTION('center_axis',(-0.38268343236509,-1.34519649701503E-016,
0.923879532511287));
#216=DIRECTION('ref_axis',(-0.923879532511287,6.32135305912193E-017,-0.38268343236509));
#217=DIRECTION('center_axis',(-1.,0.,0.));
#218=DIRECTION('ref_axis',(0.,0.,1.));
#219=DIRECTION('center_axis',(1.,0.,0.));
#220=DIRECTION('ref_axis',(0.,0.,1.));
#221=DIRECTION('center_axis',(-1.,0.,0.));
#222=DIRECTION('ref_axis',(0.,-1.,0.));
#223=DIRECTION('center_axis',(-1.,0.,0.));
#224=DIRECTION('ref_axis',(0.,0.,1.));
#225=DIRECTION('center_axis',(-1.,0.,0.));
#226=DIRECTION('ref_axis',(0.,0.,1.));
#227=DIRECTION('center_axis',(1.,0.,0.));
#228=DIRECTION('ref_axis',(0.,-1.,0.));
#229=DIRECTION('center_axis',(1.,0.,0.));
#230=DIRECTION('ref_axis',(0.,-1.,0.));
#231=DIRECTION('center_axis',(-1.,0.,0.));
#232=DIRECTION('ref_axis',(0.,0.,1.));
#233=DIRECTION('center_axis',(-1.,0.,0.));
#234=DIRECTION('ref_axis',(0.,-1.,0.));
#235=DIRECTION('center_axis',(1.,0.,0.));
#236=DIRECTION('ref_axis',(0.,-1.,0.));
#237=DIRECTION('center_axis',(-0.38268343236509,-8.992546E-017,0.923879532511287));
#238=DIRECTION('ref_axis',(-0.923879532511287,-5.792258E-017,-0.38268343236509));
#239=DIRECTION('center_axis',(0.923879532511287,-3.724835E-017,0.38268343236509));
#240=DIRECTION('ref_axis',(0.38268343236509,2.399232E-017,-0.923879532511287));
#241=DIRECTION('center_axis',(-1.,0.,0.));
#242=DIRECTION('ref_axis',(0.,-1.,0.));
#243=DIRECTION('center_axis',(0.707106781186745,-4.97182435689334E-026,
0.70710678118635));
#244=DIRECTION('ref_axis',(-1.28574399804209E-013,-1.,1.28574399804209E-013));
#245=DIRECTION('center_axis',(-0.707106781186548,0.,-0.707106781186547));
#246=DIRECTION('ref_axis',(0.,-1.,0.));
#247=DIRECTION('center_axis',(-0.707106781186548,0.,-0.707106781186547));
#248=DIRECTION('ref_axis',(0.,-1.,0.));
#249=DIRECTION('center_axis',(1.,0.,0.));
#250=DIRECTION('ref_axis',(0.,-1.,0.));
#251=DIRECTION('center_axis',(-1.,0.,0.));
#252=DIRECTION('ref_axis',(0.,-1.,0.));
#253=DIRECTION('center_axis',(-1.,0.,0.));
#254=DIRECTION('ref_axis',(0.,-1.,0.));
#255=DIRECTION('center_axis',(0.707106781186548,-9.458146E-018,0.707106781186547));
#256=DIRECTION('ref_axis',(0.,-1.,0.));
#257=DIRECTION('center_axis',(-0.707106781186548,0.,-0.707106781186547));
#258=DIRECTION('ref_axis',(0.,-1.,0.));
#259=DIRECTION('center_axis',(0.707106781186548,-6.86588E-017,0.707106781186547));
#260=DIRECTION('ref_axis',(0.707106781186547,0.,-0.707106781186548));
#261=DIRECTION('center_axis',(1.,0.,0.));
#262=DIRECTION('ref_axis',(0.,0.,-1.));
#263=DIRECTION('center_axis',(1.,0.,0.));
#264=DIRECTION('ref_axis',(0.,0.,-1.));
#265=DIRECTION('center_axis',(0.707106781186548,-9.458146E-018,0.707106781186547));
#266=DIRECTION('ref_axis',(0.707106781186547,0.,-0.707106781186548));
#267=CARTESIAN_POINT('',(0.,0.,0.));
#268=CARTESIAN_POINT('Origin',(18.7664784949239,2.18880780167297E-007,56.5681886056752));
#269=CARTESIAN_POINT('',(40.3332353211136,2.18880783497966E-007,35.0014317794854));
#270=CARTESIAN_POINT('Origin',(18.7664784949239,2.18880780167297E-007,56.5681886056752));
#271=CARTESIAN_POINT('',(-37.8020639999999,30.5000002188808,-0.000353889248596584));
#272=CARTESIAN_POINT('',(-37.8020639999999,-30.4999997811192,-0.000353889248605466));
#273=CARTESIAN_POINT('Origin',(-37.8020639999999,2.18880785718412E-007,
-0.000353889248601025));
#274=CARTESIAN_POINT('Origin',(-37.8020639999999,2.18880785718412E-007,
-0.000353889248618788));
#275=CARTESIAN_POINT('Origin',(-51.802064,-31.4999997811192,-0.000353889248601025));
#276=CARTESIAN_POINT('',(-51.802064,2.1888079237975E-007,-30.5003538892486));
#277=CARTESIAN_POINT('Origin',(-51.802064,2.18880789049081E-007,-0.000353889248601025));
#278=CARTESIAN_POINT('',(-51.802064,31.5000002188808,-0.000353889248601025));
#279=CARTESIAN_POINT('Origin',(-51.802064,2.18880789049081E-007,-0.000353889248601025));
#280=CARTESIAN_POINT('Origin',(42.197936,2.18880789049081E-007,-0.000353889248601025));
#281=CARTESIAN_POINT('',(42.197936,2.1888079237975E-007,-30.5003538892486));
#282=CARTESIAN_POINT('Origin',(42.197936,2.18880789049081E-007,-0.000353889248601025));
#283=CARTESIAN_POINT('Origin',(-70.802064,2.18880774616181E-007,-0.000353889248601025));
#284=CARTESIAN_POINT('',(-89.802064,31.5000002188808,-0.000353889248601025));
#285=CARTESIAN_POINT('Origin',(-89.802064,2.18880789049081E-007,-0.000353889248601025));
#286=CARTESIAN_POINT('Origin',(-89.802064,2.18880739089045E-007,-0.000353889248703165));
#287=CARTESIAN_POINT('',(-89.802064,36.5000002188808,-0.000353889248601025));
#288=CARTESIAN_POINT('Origin',(-89.802064,2.18880789049081E-007,-0.000353889248601025));
#289=CARTESIAN_POINT('Origin',(-89.802064,2.18880789049081E-007,-0.000353889248601025));
#290=CARTESIAN_POINT('',(-37.802064,-36.4999997811192,-0.000353889248601025));
#291=CARTESIAN_POINT('',(-37.802064,36.5000002188808,-0.000353889248601025));
#292=CARTESIAN_POINT('Origin',(-37.802064,2.18880789049081E-007,-0.000353889248601025));
#293=CARTESIAN_POINT('Origin',(-37.802064,2.18880789049081E-007,-0.000353889248601025));
#294=CARTESIAN_POINT('',(80.197936,36.5000002188808,-0.000353889248601025));
#295=CARTESIAN_POINT('Origin',(80.197936,2.18880800151311E-007,-0.000353889248601025));
#296=CARTESIAN_POINT('Origin',(32.2015073374721,2.18880774616181E-007,70.0032174482155));
#297=CARTESIAN_POINT('',(45.636536180013,31.5000002188808,83.438246290764));
#298=CARTESIAN_POINT('Origin',(45.636536180013,2.18880780167297E-007,83.438246290764));
#299=CARTESIAN_POINT('',(18.766478494924,31.5000002188808,56.5681886056752));
#300=CARTESIAN_POINT('Origin',(18.766478494924,2.18880780167297E-007,56.5681886056752));
#301=CARTESIAN_POINT('Origin',(61.197936,2.18880774616181E-007,-0.000353889248601025));
#302=CARTESIAN_POINT('',(80.197936,31.5000002188808,-0.000353889248601025));
#303=CARTESIAN_POINT('Origin',(80.197936,2.18880800151311E-007,-0.000353889248601025));
#304=CARTESIAN_POINT('',(42.197936,31.5000002188808,-0.000353889248601025));
#305=CARTESIAN_POINT('Origin',(42.197936,2.18880789049081E-007,-0.000353889248601025));
#306=CARTESIAN_POINT('Origin',(-37.802064,2.18880780167297E-007,-0.000353889248601025));
#307=CARTESIAN_POINT('',(45.636536180013,36.5000002188808,83.438246290764));
#308=CARTESIAN_POINT('Origin',(45.636536180013,2.18880780167297E-007,83.438246290764));
#309=CARTESIAN_POINT('Origin',(18.766478494924,2.18880750191275E-007,56.5681886056751));
#310=CARTESIAN_POINT('Origin',(42.197936,2.18880750191275E-007,-0.000353889248703165));
#311=CARTESIAN_POINT('Origin',(80.197936,-36.4999997811192,-0.000353889248601025));
#312=CARTESIAN_POINT('Origin',(45.636536180013,-36.4999997811192,83.438246290764));
#313=UNCERTAINTY_MEASURE_WITH_UNIT(LENGTH_MEASURE(0.01),#315,
'DISTANCE_ACCURACY_VALUE',
'Maximum model space distance between geometric entities at asserted c
onnectivities');
#314=(
GEOMETRIC_REPRESENTATION_CONTEXT(3)
GLOBAL_UNCERTAINTY_ASSIGNED_CONTEXT((#313))
GLOBAL_UNIT_ASSIGNED_CONTEXT((#315,#318,#316))
REPRESENTATION_CONTEXT('','3D')
);
#315=(
LENGTH_UNIT()
NAMED_UNIT(*)
SI_UNIT(.MILLI.,.METRE.)
);
#316=(
NAMED_UNIT(*)
SI_UNIT($,.STERADIAN.)
SOLID_ANGLE_UNIT()
);
#317=DIMENSIONAL_EXPONENTS(0.,0.,0.,0.,0.,0.,0.);
#318=(
CONVERSION_BASED_UNIT('degree',#320)
NAMED_UNIT(#317)
PLANE_ANGLE_UNIT()
);
#319=(
NAMED_UNIT(*)
PLANE_ANGLE_UNIT()
SI_UNIT($,.RADIAN.)
);
#320=PLANE_ANGLE_MEASURE_WITH_UNIT(PLANE_ANGLE_MEASURE(0.01745329252),#319);
#321=SHAPE_DEFINITION_REPRESENTATION(#322,#323);
#322=PRODUCT_DEFINITION_SHAPE('',$,#325);
#323=SHAPE_REPRESENTATION('',(#177),#314);
#324=PRODUCT_DEFINITION_CONTEXT('3D Mechanical Parts',#328,'design');
#325=PRODUCT_DEFINITION('YIV063','YIV063',#326,#324);
#326=PRODUCT_DEFINITION_FORMATION('',$,#330);
#327=APPLICATION_PROTOCOL_DEFINITION('international standard',
'automotive_design',2009,#328);
#328=APPLICATION_CONTEXT(
'Core Data for Automotive Mechanical Design Process');
#329=PRODUCT_CONTEXT('3D Mechanical Parts',#328,'mechanical');
#330=PRODUCT('YIV063','YIV063',$,(#329));
#331=PRESENTATION_STYLE_ASSIGNMENT((#332));
#332=SURFACE_STYLE_USAGE(.BOTH.,#333);
#333=SURFACE_SIDE_STYLE($,(#334));
#334=SURFACE_STYLE_FILL_AREA(#335);
#335=FILL_AREA_STYLE($,(#336));
#336=FILL_AREA_STYLE_COLOUR($,#337);
#337=COLOUR_RGB('',0.509803921568627,0.509803921568627,0.588235294117647);
ENDSEC;
END-ISO-10303-21;
