ISO-10303-21;
HEADER;
FILE_DESCRIPTION( ( 'STEP AP214' ), '1' );
FILE_NAME( 'p:/temp/worker_1/temp/exporttempdir_3824_544_uyLlD/format_0/AGRU_11056004007_Tee_PPR grey_40 - MOP 20 bar (architecture400).stp', '2022-03-10T06:57:00', ( 'License CC BY-ND 4.0' ), ( 'CADENAS' ), ' ', 'PARTsolutions', ' ' );
FILE_SCHEMA( ( 'AUTOMOTIVE_DESIGN { 1 0 10303 214 1 1 1 1 }' ) );
ENDSEC;
DATA;
#1 = MECHANICAL_DESIGN_GEOMETRIC_PRESENTATION_REPRESENTATION( ' ', ( #10, #11, #12, #13, #14, #15, #16, #17, #18, #19, #20, #21, #22 ), #6 );
#2 = PRODUCT_DEFINITION_CONTEXT( '', #23, 'design' );
#3 = APPLICATION_PROTOCOL_DEFINITION( 'international standard', 'automotive_design', 2001, #23 );
#4 = PRODUCT_CATEGORY_RELATIONSHIP( 'NONE', 'NONE', #24, #25 );
#5 = SHAPE_DEFINITION_REPRESENTATION( #26, #27 );
#6 =  ( GEOMETRIC_REPRESENTATION_CONTEXT( 3 )GLOBAL_UNCERTAINTY_ASSIGNED_CONTEXT( ( #30 ) )GLOBAL_UNIT_ASSIGNED_CONTEXT( ( #32, #33, #34 ) )REPRESENTATION_CONTEXT( 'NONE', 'WORKSPACE' ) );
#10 = STYLED_ITEM( '', ( #36 ), #37 );
#11 = STYLED_ITEM( '', ( #38 ), #39 );
#12 = STYLED_ITEM( '', ( #40 ), #41 );
#13 = STYLED_ITEM( '', ( #42 ), #43 );
#14 = STYLED_ITEM( '', ( #44 ), #45 );
#15 = STYLED_ITEM( '', ( #46 ), #47 );
#16 = STYLED_ITEM( '', ( #48 ), #49 );
#17 = STYLED_ITEM( '', ( #50 ), #51 );
#18 = STYLED_ITEM( '', ( #52 ), #53 );
#19 = STYLED_ITEM( '', ( #54 ), #55 );
#20 = STYLED_ITEM( '', ( #56 ), #57 );
#21 = STYLED_ITEM( '', ( #58 ), #59 );
#22 = STYLED_ITEM( '', ( #60 ), #61 );
#23 = APPLICATION_CONTEXT( 'core data for automotive mechanical design processes' );
#24 = PRODUCT_CATEGORY( 'part', 'NONE' );
#25 = PRODUCT_RELATED_PRODUCT_CATEGORY( 'detail', ' ', ( #62 ) );
#26 = PRODUCT_DEFINITION_SHAPE( 'NONE', 'NONE', #63 );
#27 = ADVANCED_BREP_SHAPE_REPRESENTATION( '_AGRU_11056004007_Tee_PPR grey_40 - MOP 20 bar (architecture400)', ( #64, #65 ), #6 );
#30 = UNCERTAINTY_MEASURE_WITH_UNIT( LENGTH_MEASURE( 0.00100000000000000 ), #32, '', '' );
#32 =  ( CONVERSION_BASED_UNIT( 'MILLIMETRE', #68 )LENGTH_UNIT(  )NAMED_UNIT( #71 ) );
#33 =  ( NAMED_UNIT( #73 )PLANE_ANGLE_UNIT(  )SI_UNIT( $, .RADIAN. ) );
#34 =  ( NAMED_UNIT( #73 )SI_UNIT( $, .STERADIAN. )SOLID_ANGLE_UNIT(  ) );
#36 = PRESENTATION_STYLE_ASSIGNMENT( ( #79 ) );
#37 = ADVANCED_FACE( '', ( #80, #81 ), #82, .T. );
#38 = PRESENTATION_STYLE_ASSIGNMENT( ( #83 ) );
#39 = ADVANCED_FACE( '', ( #84, #85 ), #86, .T. );
#40 = PRESENTATION_STYLE_ASSIGNMENT( ( #87 ) );
#41 = ADVANCED_FACE( '', ( #88, #89 ), #90, .F. );
#42 = PRESENTATION_STYLE_ASSIGNMENT( ( #91 ) );
#43 = ADVANCED_FACE( '', ( #92, #93 ), #94, .F. );
#44 = PRESENTATION_STYLE_ASSIGNMENT( ( #95 ) );
#45 = ADVANCED_FACE( '', ( #96, #97 ), #98, .T. );
#46 = PRESENTATION_STYLE_ASSIGNMENT( ( #99 ) );
#47 = ADVANCED_FACE( '', ( #100, #101 ), #102, .F. );
#48 = PRESENTATION_STYLE_ASSIGNMENT( ( #103 ) );
#49 = ADVANCED_FACE( '', ( #104, #105, #106 ), #107, .T. );
#50 = PRESENTATION_STYLE_ASSIGNMENT( ( #108 ) );
#51 = ADVANCED_FACE( '', ( #109, #110 ), #111, .F. );
#52 = PRESENTATION_STYLE_ASSIGNMENT( ( #112 ) );
#53 = ADVANCED_FACE( '', ( #113, #114 ), #115, .F. );
#54 = PRESENTATION_STYLE_ASSIGNMENT( ( #116 ) );
#55 = ADVANCED_FACE( '', ( #117, #118, #119 ), #120, .F. );
#56 = PRESENTATION_STYLE_ASSIGNMENT( ( #121 ) );
#57 = ADVANCED_FACE( '', ( #122, #123 ), #124, .T. );
#58 = PRESENTATION_STYLE_ASSIGNMENT( ( #125 ) );
#59 = ADVANCED_FACE( '', ( #126, #127 ), #128, .T. );
#60 = PRESENTATION_STYLE_ASSIGNMENT( ( #129 ) );
#61 = ADVANCED_FACE( '', ( #130, #131 ), #132, .T. );
#62 = PRODUCT( '_AGRU_11056004007_Tee_PPR grey_40 - MOP 20 bar (architecture400)', '_AGRU_11056004007_Tee_PPR grey_40 - MOP 20 bar (architecture400)', 'PART-_AGRU_11056004007_Tee_PPR grey_40 - MOP 20 bar (architecture400)-DESC', ( #133 ) );
#63 = PRODUCT_DEFINITION( 'NONE', 'NONE', #134, #2 );
#64 = MANIFOLD_SOLID_BREP( '_AGRU_11056004007_Tee_PPR grey_40 - MOP 20 bar (architecture400)', #135 );
#65 = AXIS2_PLACEMENT_3D( '', #136, #137, #138 );
#68 = LENGTH_MEASURE_WITH_UNIT( LENGTH_MEASURE( 1.00000000000000 ), #139 );
#71 = DIMENSIONAL_EXPONENTS( 1.00000000000000, 0.000000000000000, 0.000000000000000, 0.000000000000000, 0.000000000000000, 0.000000000000000, 0.000000000000000 );
#73 = DIMENSIONAL_EXPONENTS( 0.000000000000000, 0.000000000000000, 0.000000000000000, 0.000000000000000, 0.000000000000000, 0.000000000000000, 0.000000000000000 );
#79 = SURFACE_STYLE_USAGE( .BOTH., #140 );
#80 = FACE_BOUND( '', #141, .T. );
#81 = FACE_OUTER_BOUND( '', #142, .T. );
#82 = PLANE( '', #143 );
#83 = SURFACE_STYLE_USAGE( .BOTH., #144 );
#84 = FACE_BOUND( '', #145, .T. );
#85 = FACE_OUTER_BOUND( '', #146, .T. );
#86 = PLANE( '', #147 );
#87 = SURFACE_STYLE_USAGE( .BOTH., #148 );
#88 = FACE_BOUND( '', #149, .T. );
#89 = FACE_OUTER_BOUND( '', #150, .T. );
#90 = PLANE( '', #151 );
#91 = SURFACE_STYLE_USAGE( .BOTH., #152 );
#92 = FACE_OUTER_BOUND( '', #153, .T. );
#93 = FACE_OUTER_BOUND( '', #154, .T. );
#94 = CYLINDRICAL_SURFACE( '', #155, 20.0000000000000 );
#95 = SURFACE_STYLE_USAGE( .BOTH., #156 );
#96 = FACE_OUTER_BOUND( '', #157, .T. );
#97 = FACE_BOUND( '', #158, .T. );
#98 = PLANE( '', #159 );
#99 = SURFACE_STYLE_USAGE( .BOTH., #160 );
#100 = FACE_OUTER_BOUND( '', #161, .T. );
#101 = FACE_OUTER_BOUND( '', #162, .T. );
#102 = CYLINDRICAL_SURFACE( '', #163, 17.8333333333000 );
#103 = SURFACE_STYLE_USAGE( .BOTH., #164 );
#104 = FACE_OUTER_BOUND( '', #165, .T. );
#105 = FACE_OUTER_BOUND( '', #166, .T. );
#106 = FACE_BOUND( '', #167, .T. );
#107 = CYLINDRICAL_SURFACE( '', #168, 26.5000000000000 );
#108 = SURFACE_STYLE_USAGE( .BOTH., #169 );
#109 = FACE_OUTER_BOUND( '', #170, .T. );
#110 = FACE_OUTER_BOUND( '', #171, .T. );
#111 = CYLINDRICAL_SURFACE( '', #172, 20.0000000000000 );
#112 = SURFACE_STYLE_USAGE( .BOTH., #173 );
#113 = FACE_OUTER_BOUND( '', #174, .T. );
#114 = FACE_OUTER_BOUND( '', #175, .T. );
#115 = CYLINDRICAL_SURFACE( '', #176, 20.0000000000000 );
#116 = SURFACE_STYLE_USAGE( .BOTH., #177 );
#117 = FACE_OUTER_BOUND( '', #178, .T. );
#118 = FACE_BOUND( '', #179, .T. );
#119 = FACE_OUTER_BOUND( '', #180, .T. );
#120 = CYLINDRICAL_SURFACE( '', #181, 17.8333333333000 );
#121 = SURFACE_STYLE_USAGE( .BOTH., #182 );
#122 = FACE_OUTER_BOUND( '', #183, .T. );
#123 = FACE_OUTER_BOUND( '', #184, .T. );
#124 = CYLINDRICAL_SURFACE( '', #185, 26.5000000000000 );
#125 = SURFACE_STYLE_USAGE( .BOTH., #186 );
#126 = FACE_BOUND( '', #187, .T. );
#127 = FACE_OUTER_BOUND( '', #188, .T. );
#128 = PLANE( '', #189 );
#129 = SURFACE_STYLE_USAGE( .BOTH., #190 );
#130 = FACE_BOUND( '', #191, .T. );
#131 = FACE_OUTER_BOUND( '', #192, .T. );
#132 = PLANE( '', #193 );
#133 = PRODUCT_CONTEXT( '', #23, 'mechanical' );
#134 = PRODUCT_DEFINITION_FORMATION_WITH_SPECIFIED_SOURCE( ' ', 'NONE', #62, .NOT_KNOWN. );
#135 = CLOSED_SHELL( '', ( #55, #49, #39, #41, #57, #59, #43, #61, #45, #53, #51, #37, #47 ) );
#136 = CARTESIAN_POINT( '', ( 0.000000000000000, 0.000000000000000, 0.000000000000000 ) );
#137 = DIRECTION( '', ( 0.000000000000000, 0.000000000000000, 1.00000000000000 ) );
#138 = DIRECTION( '', ( 1.00000000000000, 0.000000000000000, 0.000000000000000 ) );
#139 =  ( LENGTH_UNIT(  )NAMED_UNIT( #71 )SI_UNIT( .MILLI., .METRE. ) );
#140 = SURFACE_SIDE_STYLE( '', ( #195 ) );
#141 = EDGE_LOOP( '', ( #196 ) );
#142 = EDGE_LOOP( '', ( #197 ) );
#143 = AXIS2_PLACEMENT_3D( '', #198, #199, #200 );
#144 = SURFACE_SIDE_STYLE( '', ( #201 ) );
#145 = EDGE_LOOP( '', ( #202 ) );
#146 = EDGE_LOOP( '', ( #203 ) );
#147 = AXIS2_PLACEMENT_3D( '', #204, #205, #206 );
#148 = SURFACE_SIDE_STYLE( '', ( #207 ) );
#149 = EDGE_LOOP( '', ( #208 ) );
#150 = EDGE_LOOP( '', ( #209 ) );
#151 = AXIS2_PLACEMENT_3D( '', #210, #211, #212 );
#152 = SURFACE_SIDE_STYLE( '', ( #213 ) );
#153 = EDGE_LOOP( '', ( #214 ) );
#154 = EDGE_LOOP( '', ( #215 ) );
#155 = AXIS2_PLACEMENT_3D( '', #216, #217, #218 );
#156 = SURFACE_SIDE_STYLE( '', ( #219 ) );
#157 = EDGE_LOOP( '', ( #220 ) );
#158 = EDGE_LOOP( '', ( #221 ) );
#159 = AXIS2_PLACEMENT_3D( '', #222, #223, #224 );
#160 = SURFACE_SIDE_STYLE( '', ( #225 ) );
#161 = EDGE_LOOP( '', ( #226, #227 ) );
#162 = EDGE_LOOP( '', ( #228 ) );
#163 = AXIS2_PLACEMENT_3D( '', #229, #230, #231 );
#164 = SURFACE_SIDE_STYLE( '', ( #232 ) );
#165 = EDGE_LOOP( '', ( #233 ) );
#166 = EDGE_LOOP( '', ( #234 ) );
#167 = EDGE_LOOP( '', ( #235, #236 ) );
#168 = AXIS2_PLACEMENT_3D( '', #237, #238, #239 );
#169 = SURFACE_SIDE_STYLE( '', ( #240 ) );
#170 = EDGE_LOOP( '', ( #241 ) );
#171 = EDGE_LOOP( '', ( #242 ) );
#172 = AXIS2_PLACEMENT_3D( '', #243, #244, #245 );
#173 = SURFACE_SIDE_STYLE( '', ( #246 ) );
#174 = EDGE_LOOP( '', ( #247 ) );
#175 = EDGE_LOOP( '', ( #248 ) );
#176 = AXIS2_PLACEMENT_3D( '', #249, #250, #251 );
#177 = SURFACE_SIDE_STYLE( '', ( #252 ) );
#178 = EDGE_LOOP( '', ( #253 ) );
#179 = EDGE_LOOP( '', ( #254, #255 ) );
#180 = EDGE_LOOP( '', ( #256 ) );
#181 = AXIS2_PLACEMENT_3D( '', #257, #258, #259 );
#182 = SURFACE_SIDE_STYLE( '', ( #260 ) );
#183 = EDGE_LOOP( '', ( #261 ) );
#184 = EDGE_LOOP( '', ( #262, #263 ) );
#185 = AXIS2_PLACEMENT_3D( '', #264, #265, #266 );
#186 = SURFACE_SIDE_STYLE( '', ( #267 ) );
#187 = EDGE_LOOP( '', ( #268 ) );
#188 = EDGE_LOOP( '', ( #269 ) );
#189 = AXIS2_PLACEMENT_3D( '', #270, #271, #272 );
#190 = SURFACE_SIDE_STYLE( '', ( #273 ) );
#191 = EDGE_LOOP( '', ( #274 ) );
#192 = EDGE_LOOP( '', ( #275 ) );
#193 = AXIS2_PLACEMENT_3D( '', #276, #277, #278 );
#195 = SURFACE_STYLE_FILL_AREA( #279 );
#196 = ORIENTED_EDGE( '', *, *, #280, .T. );
#197 = ORIENTED_EDGE( '', *, *, #281, .F. );
#198 = CARTESIAN_POINT( '', ( -4.00000000000000, 0.000000000000000, 24.0000000000000 ) );
#199 = DIRECTION( '', ( 0.000000000000000, 0.000000000000000, 1.00000000000000 ) );
#200 = DIRECTION( '', ( 1.00000000000000, 0.000000000000000, -0.000000000000000 ) );
#201 = SURFACE_STYLE_FILL_AREA( #282 );
#202 = ORIENTED_EDGE( '', *, *, #283, .F. );
#203 = ORIENTED_EDGE( '', *, *, #284, .T. );
#204 = CARTESIAN_POINT( '', ( 22.0000000000000, 0.000000000000000, 0.000000000000000 ) );
#205 = DIRECTION( '', ( 1.00000000000000, 0.000000000000000, 0.000000000000000 ) );
#206 = DIRECTION( '', ( 0.000000000000000, 0.000000000000000, -1.00000000000000 ) );
#207 = SURFACE_STYLE_FILL_AREA( #285 );
#208 = ORIENTED_EDGE( '', *, *, #286, .T. );
#209 = ORIENTED_EDGE( '', *, *, #287, .F. );
#210 = CARTESIAN_POINT( '', ( -70.0000000000000, 0.000000000000000, 0.000000000000000 ) );
#211 = DIRECTION( '', ( 1.00000000000000, 0.000000000000000, 0.000000000000000 ) );
#212 = DIRECTION( '', ( 0.000000000000000, 0.000000000000000, -1.00000000000000 ) );
#213 = SURFACE_STYLE_FILL_AREA( #288 );
#214 = ORIENTED_EDGE( '', *, *, #289, .T. );
#215 = ORIENTED_EDGE( '', *, *, #286, .F. );
#216 = CARTESIAN_POINT( '', ( 22.0000000000000, 0.000000000000000, 0.000000000000000 ) );
#217 = DIRECTION( '', ( -1.00000000000000, -0.000000000000000, 0.000000000000000 ) );
#218 = DIRECTION( '', ( -0.000000000000000, 0.000000000000000, -1.00000000000000 ) );
#219 = SURFACE_STYLE_FILL_AREA( #290 );
#220 = ORIENTED_EDGE( '', *, *, #291, .T. );
#221 = ORIENTED_EDGE( '', *, *, #292, .F. );
#222 = CARTESIAN_POINT( '', ( 0.000000000000000, 0.000000000000000, 17.8333333333333 ) );
#223 = DIRECTION( '', ( 1.00000000000000, 0.000000000000000, -0.000000000000000 ) );
#224 = DIRECTION( '', ( -0.000000000000000, 0.000000000000000, -1.00000000000000 ) );
#225 = SURFACE_STYLE_FILL_AREA( #293 );
#226 = ORIENTED_EDGE( '', *, *, #294, .F. );
#227 = ORIENTED_EDGE( '', *, *, #295, .F. );
#228 = ORIENTED_EDGE( '', *, *, #280, .F. );
#229 = CARTESIAN_POINT( '', ( -24.0000000000000, 0.000000000000000, 0.000000000000000 ) );
#230 = DIRECTION( '', ( 0.000000000000000, -0.000000000000000, 1.00000000000000 ) );
#231 = DIRECTION( '', ( -1.00000000000000, 0.000000000000000, 0.000000000000000 ) );
#232 = SURFACE_STYLE_FILL_AREA( #296 );
#233 = ORIENTED_EDGE( '', *, *, #287, .T. );
#234 = ORIENTED_EDGE( '', *, *, #284, .F. );
#235 = ORIENTED_EDGE( '', *, *, #297, .F. );
#236 = ORIENTED_EDGE( '', *, *, #298, .F. );
#237 = CARTESIAN_POINT( '', ( 22.0000000000000, 0.000000000000000, 0.000000000000000 ) );
#238 = DIRECTION( '', ( 1.00000000000000, -0.000000000000000, -0.000000000000000 ) );
#239 = DIRECTION( '', ( 0.000000000000000, 0.000000000000000, 1.00000000000000 ) );
#240 = SURFACE_STYLE_FILL_AREA( #299 );
#241 = ORIENTED_EDGE( '', *, *, #281, .T. );
#242 = ORIENTED_EDGE( '', *, *, #300, .F. );
#243 = CARTESIAN_POINT( '', ( -24.0000000000000, 0.000000000000000, 0.000000000000000 ) );
#244 = DIRECTION( '', ( 0.000000000000000, -0.000000000000000, 1.00000000000000 ) );
#245 = DIRECTION( '', ( -1.00000000000000, 0.000000000000000, 0.000000000000000 ) );
#246 = SURFACE_STYLE_FILL_AREA( #301 );
#247 = ORIENTED_EDGE( '', *, *, #283, .T. );
#248 = ORIENTED_EDGE( '', *, *, #291, .F. );
#249 = CARTESIAN_POINT( '', ( 22.0000000000000, 0.000000000000000, 0.000000000000000 ) );
#250 = DIRECTION( '', ( -1.00000000000000, -0.000000000000000, 0.000000000000000 ) );
#251 = DIRECTION( '', ( -0.000000000000000, 0.000000000000000, -1.00000000000000 ) );
#252 = SURFACE_STYLE_FILL_AREA( #302 );
#253 = ORIENTED_EDGE( '', *, *, #292, .T. );
#254 = ORIENTED_EDGE( '', *, *, #294, .T. );
#255 = ORIENTED_EDGE( '', *, *, #295, .T. );
#256 = ORIENTED_EDGE( '', *, *, #303, .F. );
#257 = CARTESIAN_POINT( '', ( 22.0000000000000, 0.000000000000000, 0.000000000000000 ) );
#258 = DIRECTION( '', ( -1.00000000000000, -0.000000000000000, 0.000000000000000 ) );
#259 = DIRECTION( '', ( -0.000000000000000, 0.000000000000000, -1.00000000000000 ) );
#260 = SURFACE_STYLE_FILL_AREA( #304 );
#261 = ORIENTED_EDGE( '', *, *, #305, .F. );
#262 = ORIENTED_EDGE( '', *, *, #298, .T. );
#263 = ORIENTED_EDGE( '', *, *, #297, .T. );
#264 = CARTESIAN_POINT( '', ( -24.0000000000000, 0.000000000000000, 46.0000000000000 ) );
#265 = DIRECTION( '', ( 0.000000000000000, -0.000000000000000, 1.00000000000000 ) );
#266 = DIRECTION( '', ( -1.00000000000000, 0.000000000000000, 0.000000000000000 ) );
#267 = SURFACE_STYLE_FILL_AREA( #306 );
#268 = ORIENTED_EDGE( '', *, *, #300, .T. );
#269 = ORIENTED_EDGE( '', *, *, #305, .T. );
#270 = CARTESIAN_POINT( '', ( -24.0000000000000, 0.000000000000000, 46.0000000000000 ) );
#271 = DIRECTION( '', ( 0.000000000000000, 0.000000000000000, 1.00000000000000 ) );
#272 = DIRECTION( '', ( 1.00000000000000, 0.000000000000000, -0.000000000000000 ) );
#273 = SURFACE_STYLE_FILL_AREA( #307 );
#274 = ORIENTED_EDGE( '', *, *, #303, .T. );
#275 = ORIENTED_EDGE( '', *, *, #289, .F. );
#276 = CARTESIAN_POINT( '', ( -48.0000000000000, 0.000000000000000, 20.0000000000000 ) );
#277 = DIRECTION( '', ( -1.00000000000000, 0.000000000000000, 0.000000000000000 ) );
#278 = DIRECTION( '', ( 0.000000000000000, 0.000000000000000, 1.00000000000000 ) );
#279 = FILL_AREA_STYLE( '', ( #308 ) );
#280 = EDGE_CURVE( '', #309, #309, #310, .T. );
#281 = EDGE_CURVE( '', #311, #311, #312, .T. );
#282 = FILL_AREA_STYLE( '', ( #313 ) );
#283 = EDGE_CURVE( '', #314, #314, #315, .T. );
#284 = EDGE_CURVE( '', #316, #316, #317, .T. );
#285 = FILL_AREA_STYLE( '', ( #318 ) );
#286 = EDGE_CURVE( '', #319, #319, #320, .T. );
#287 = EDGE_CURVE( '', #321, #321, #322, .T. );
#288 = FILL_AREA_STYLE( '', ( #323 ) );
#289 = EDGE_CURVE( '', #324, #324, #325, .T. );
#290 = FILL_AREA_STYLE( '', ( #326 ) );
#291 = EDGE_CURVE( '', #327, #327, #328, .T. );
#292 = EDGE_CURVE( '', #329, #329, #330, .T. );
#293 = FILL_AREA_STYLE( '', ( #331 ) );
#294 = EDGE_CURVE( '', #332, #333, #334, .F. );
#295 = EDGE_CURVE( '', #333, #332, #335, .T. );
#296 = FILL_AREA_STYLE( '', ( #336 ) );
#297 = EDGE_CURVE( '', #337, #338, #339, .F. );
#298 = EDGE_CURVE( '', #338, #337, #340, .T. );
#299 = FILL_AREA_STYLE( '', ( #341 ) );
#300 = EDGE_CURVE( '', #342, #342, #343, .T. );
#301 = FILL_AREA_STYLE( '', ( #344 ) );
#302 = FILL_AREA_STYLE( '', ( #345 ) );
#303 = EDGE_CURVE( '', #346, #346, #347, .T. );
#304 = FILL_AREA_STYLE( '', ( #348 ) );
#305 = EDGE_CURVE( '', #349, #349, #350, .T. );
#306 = FILL_AREA_STYLE( '', ( #351 ) );
#307 = FILL_AREA_STYLE( '', ( #352 ) );
#308 = FILL_AREA_STYLE_COLOUR( '', #353 );
#309 = VERTEX_POINT( '', #354 );
#310 = CIRCLE( '', #355, 17.8333333333000 );
#311 = VERTEX_POINT( '', #356 );
#312 = CIRCLE( '', #357, 20.0000000000000 );
#313 = FILL_AREA_STYLE_COLOUR( '', #358 );
#314 = VERTEX_POINT( '', #359 );
#315 = CIRCLE( '', #360, 20.0000000000000 );
#316 = VERTEX_POINT( '', #361 );
#317 = CIRCLE( '', #362, 26.5000000000000 );
#318 = FILL_AREA_STYLE_COLOUR( '', #363 );
#319 = VERTEX_POINT( '', #364 );
#320 = CIRCLE( '', #365, 20.0000000000000 );
#321 = VERTEX_POINT( '', #366 );
#322 = CIRCLE( '', #367, 26.5000000000000 );
#323 = FILL_AREA_STYLE_COLOUR( '', #368 );
#324 = VERTEX_POINT( '', #369 );
#325 = CIRCLE( '', #370, 20.0000000000000 );
#326 = FILL_AREA_STYLE_COLOUR( '', #371 );
#327 = VERTEX_POINT( '', #372 );
#328 = CIRCLE( '', #373, 20.0000000000000 );
#329 = VERTEX_POINT( '', #374 );
#330 = CIRCLE( '', #375, 17.8333333333000 );
#331 = FILL_AREA_STYLE_COLOUR( '', #376 );
#332 = VERTEX_POINT( '', #377 );
#333 = VERTEX_POINT( '', #378 );
#334 = ELLIPSE( '', #379, 25.2201418623000, 17.8333333333000 );
#335 = ELLIPSE( '', #380, 25.2201418623000, 17.8333333333000 );
#336 = FILL_AREA_STYLE_COLOUR( '', #381 );
#337 = VERTEX_POINT( '', #382 );
#338 = VERTEX_POINT( '', #383 );
#339 = ELLIPSE( '', #384, 37.4766594029000, 26.5000000000000 );
#340 = ELLIPSE( '', #385, 37.4766594029000, 26.5000000000000 );
#341 = FILL_AREA_STYLE_COLOUR( '', #386 );
#342 = VERTEX_POINT( '', #387 );
#343 = CIRCLE( '', #388, 20.0000000000000 );
#344 = FILL_AREA_STYLE_COLOUR( '', #389 );
#345 = FILL_AREA_STYLE_COLOUR( '', #390 );
#346 = VERTEX_POINT( '', #391 );
#347 = CIRCLE( '', #392, 17.8333333333000 );
#348 = FILL_AREA_STYLE_COLOUR( '', #393 );
#349 = VERTEX_POINT( '', #394 );
#350 = CIRCLE( '', #395, 26.5000000000000 );
#351 = FILL_AREA_STYLE_COLOUR( '', #396 );
#352 = FILL_AREA_STYLE_COLOUR( '', #397 );
#353 = COLOUR_RGB( '', 0.713725507300000, 0.709803938900000, 0.650980413000000 );
#354 = CARTESIAN_POINT( '', ( -41.8333333333333, 0.000000000000000, 24.0000000000000 ) );
#355 = AXIS2_PLACEMENT_3D( '', #398, #399, #400 );
#356 = CARTESIAN_POINT( '', ( -44.0000000000000, 0.000000000000000, 24.0000000000000 ) );
#357 = AXIS2_PLACEMENT_3D( '', #401, #402, #403 );
#358 = COLOUR_RGB( '', 0.713725507300000, 0.709803938900000, 0.650980413000000 );
#359 = CARTESIAN_POINT( '', ( 22.0000000000000, 0.000000000000000, -20.0000000000000 ) );
#360 = AXIS2_PLACEMENT_3D( '', #404, #405, #406 );
#361 = CARTESIAN_POINT( '', ( 22.0000000000000, 26.5000000000000, 0.000000000000000 ) );
#362 = AXIS2_PLACEMENT_3D( '', #407, #408, #409 );
#363 = COLOUR_RGB( '', 0.713725507300000, 0.709803938900000, 0.650980413000000 );
#364 = CARTESIAN_POINT( '', ( -70.0000000000000, 0.000000000000000, -20.0000000000000 ) );
#365 = AXIS2_PLACEMENT_3D( '', #410, #411, #412 );
#366 = CARTESIAN_POINT( '', ( -70.0000000000000, 26.5000000000000, 0.000000000000000 ) );
#367 = AXIS2_PLACEMENT_3D( '', #413, #414, #415 );
#368 = COLOUR_RGB( '', 0.713725507300000, 0.709803938900000, 0.650980413000000 );
#369 = CARTESIAN_POINT( '', ( -48.0000000000000, 0.000000000000000, -20.0000000000000 ) );
#370 = AXIS2_PLACEMENT_3D( '', #416, #417, #418 );
#371 = COLOUR_RGB( '', 0.713725507300000, 0.709803938900000, 0.650980413000000 );
#372 = CARTESIAN_POINT( '', ( 0.000000000000000, 0.000000000000000, -20.0000000000000 ) );
#373 = AXIS2_PLACEMENT_3D( '', #419, #420, #421 );
#374 = CARTESIAN_POINT( '', ( 0.000000000000000, 0.000000000000000, -17.8333333333333 ) );
#375 = AXIS2_PLACEMENT_3D( '', #422, #423, #424 );
#376 = COLOUR_RGB( '', 0.713725507300000, 0.709803938900000, 0.650980413000000 );
#377 = CARTESIAN_POINT( '', ( -24.0000000000000, -17.8333333333333, 0.000000000000000 ) );
#378 = CARTESIAN_POINT( '', ( -24.0000000000000, 17.8333333333333, 0.000000000000000 ) );
#379 = AXIS2_PLACEMENT_3D( '', #425, #426, #427 );
#380 = AXIS2_PLACEMENT_3D( '', #428, #429, #430 );
#381 = COLOUR_RGB( '', 0.713725507300000, 0.709803938900000, 0.650980413000000 );
#382 = CARTESIAN_POINT( '', ( -24.0000000000000, 26.5000000000000, 0.000000000000000 ) );
#383 = CARTESIAN_POINT( '', ( -24.0000000000000, -26.5000000000000, 0.000000000000000 ) );
#384 = AXIS2_PLACEMENT_3D( '', #431, #432, #433 );
#385 = AXIS2_PLACEMENT_3D( '', #434, #435, #436 );
#386 = COLOUR_RGB( '', 0.713725507300000, 0.709803938900000, 0.650980413000000 );
#387 = CARTESIAN_POINT( '', ( -44.0000000000000, 0.000000000000000, 46.0000000000000 ) );
#388 = AXIS2_PLACEMENT_3D( '', #437, #438, #439 );
#389 = COLOUR_RGB( '', 0.713725507300000, 0.709803938900000, 0.650980413000000 );
#390 = COLOUR_RGB( '', 0.713725507300000, 0.709803938900000, 0.650980413000000 );
#391 = CARTESIAN_POINT( '', ( -48.0000000000000, 0.000000000000000, -17.8333333333333 ) );
#392 = AXIS2_PLACEMENT_3D( '', #440, #441, #442 );
#393 = COLOUR_RGB( '', 0.713725507300000, 0.709803938900000, 0.650980413000000 );
#394 = CARTESIAN_POINT( '', ( 2.50000000000000, 0.000000000000000, 46.0000000000000 ) );
#395 = AXIS2_PLACEMENT_3D( '', #443, #444, #445 );
#396 = COLOUR_RGB( '', 0.713725507300000, 0.709803938900000, 0.650980413000000 );
#397 = COLOUR_RGB( '', 0.713725507300000, 0.709803938900000, 0.650980413000000 );
#398 = CARTESIAN_POINT( '', ( -24.0000000000000, 0.000000000000000, 24.0000000000000 ) );
#399 = DIRECTION( '', ( -0.000000000000000, 0.000000000000000, -1.00000000000000 ) );
#400 = DIRECTION( '', ( -1.00000000000000, 0.000000000000000, 0.000000000000000 ) );
#401 = CARTESIAN_POINT( '', ( -24.0000000000000, 0.000000000000000, 24.0000000000000 ) );
#402 = DIRECTION( '', ( -0.000000000000000, 0.000000000000000, -1.00000000000000 ) );
#403 = DIRECTION( '', ( -1.00000000000000, 0.000000000000000, 0.000000000000000 ) );
#404 = CARTESIAN_POINT( '', ( 22.0000000000000, 0.000000000000000, 0.000000000000000 ) );
#405 = DIRECTION( '', ( 1.00000000000000, 0.000000000000000, -0.000000000000000 ) );
#406 = DIRECTION( '', ( -0.000000000000000, 0.000000000000000, -1.00000000000000 ) );
#407 = CARTESIAN_POINT( '', ( 22.0000000000000, 0.000000000000000, 0.000000000000000 ) );
#408 = DIRECTION( '', ( 1.00000000000000, 0.000000000000000, 0.000000000000000 ) );
#409 = DIRECTION( '', ( 0.000000000000000, 1.00000000000000, 0.000000000000000 ) );
#410 = CARTESIAN_POINT( '', ( -70.0000000000000, 0.000000000000000, 0.000000000000000 ) );
#411 = DIRECTION( '', ( 1.00000000000000, 0.000000000000000, -0.000000000000000 ) );
#412 = DIRECTION( '', ( -0.000000000000000, 0.000000000000000, -1.00000000000000 ) );
#413 = CARTESIAN_POINT( '', ( -70.0000000000000, 0.000000000000000, 0.000000000000000 ) );
#414 = DIRECTION( '', ( 1.00000000000000, 0.000000000000000, 0.000000000000000 ) );
#415 = DIRECTION( '', ( 0.000000000000000, 1.00000000000000, 0.000000000000000 ) );
#416 = CARTESIAN_POINT( '', ( -48.0000000000000, 0.000000000000000, 0.000000000000000 ) );
#417 = DIRECTION( '', ( 1.00000000000000, 0.000000000000000, -0.000000000000000 ) );
#418 = DIRECTION( '', ( -0.000000000000000, 0.000000000000000, -1.00000000000000 ) );
#419 = CARTESIAN_POINT( '', ( 0.000000000000000, 0.000000000000000, 0.000000000000000 ) );
#420 = DIRECTION( '', ( 1.00000000000000, 0.000000000000000, -0.000000000000000 ) );
#421 = DIRECTION( '', ( -0.000000000000000, 0.000000000000000, -1.00000000000000 ) );
#422 = CARTESIAN_POINT( '', ( 0.000000000000000, 0.000000000000000, 0.000000000000000 ) );
#423 = DIRECTION( '', ( 1.00000000000000, 0.000000000000000, -0.000000000000000 ) );
#424 = DIRECTION( '', ( -0.000000000000000, 0.000000000000000, -1.00000000000000 ) );
#425 = CARTESIAN_POINT( '', ( -24.0000000000000, 0.000000000000000, 0.000000000000000 ) );
#426 = DIRECTION( '', ( 0.707106781186548, 0.000000000000000, -0.707106781186548 ) );
#427 = DIRECTION( '', ( 0.707106781186548, 0.000000000000000, 0.707106781186548 ) );
#428 = CARTESIAN_POINT( '', ( -24.0000000000000, 0.000000000000000, 0.000000000000000 ) );
#429 = DIRECTION( '', ( 0.707106781186548, 0.000000000000000, 0.707106781186548 ) );
#430 = DIRECTION( '', ( 0.707106781186548, -0.000000000000000, -0.707106781186548 ) );
#431 = CARTESIAN_POINT( '', ( -24.0000000000000, 0.000000000000000, 0.000000000000000 ) );
#432 = DIRECTION( '', ( -0.707106781186548, 0.000000000000000, -0.707106781186548 ) );
#433 = DIRECTION( '', ( -0.707106781186547, 0.000000000000000, 0.707106781186547 ) );
#434 = CARTESIAN_POINT( '', ( -24.0000000000000, 0.000000000000000, 0.000000000000000 ) );
#435 = DIRECTION( '', ( -0.707106781186548, 0.000000000000000, 0.707106781186548 ) );
#436 = DIRECTION( '', ( -0.707106781186547, -0.000000000000000, -0.707106781186547 ) );
#437 = CARTESIAN_POINT( '', ( -24.0000000000000, 0.000000000000000, 46.0000000000000 ) );
#438 = DIRECTION( '', ( -0.000000000000000, 0.000000000000000, -1.00000000000000 ) );
#439 = DIRECTION( '', ( -1.00000000000000, 0.000000000000000, 0.000000000000000 ) );
#440 = CARTESIAN_POINT( '', ( -48.0000000000000, 0.000000000000000, 0.000000000000000 ) );
#441 = DIRECTION( '', ( 1.00000000000000, 0.000000000000000, -0.000000000000000 ) );
#442 = DIRECTION( '', ( -0.000000000000000, 0.000000000000000, -1.00000000000000 ) );
#443 = CARTESIAN_POINT( '', ( -24.0000000000000, 0.000000000000000, 46.0000000000000 ) );
#444 = DIRECTION( '', ( 0.000000000000000, 0.000000000000000, 1.00000000000000 ) );
#445 = DIRECTION( '', ( 1.00000000000000, 0.000000000000000, 0.000000000000000 ) );
ENDSEC;
END-ISO-10303-21;
