ISO-10303-21;
HEADER;
FILE_DESCRIPTION( ( '' ), '1' );
FILE_NAME( '//se01002/users/anro/AGRU_12705003211_PPH_grau_Rohr__5m_32X2_9__SDR11__ISO_S-5_10.stp', '2018-02-07T07:34:56', ( '' ), ( '' ), ' ', ' ', ' ' );
FILE_SCHEMA( ( 'automotive_design' ) );
ENDSEC;
DATA;
#1 = MECHANICAL_DESIGN_GEOMETRIC_PRESENTATION_REPRESENTATION( ' ', ( #10, #11, #12, #13, #14, #15, #16, #17, #18, #19, #20, #21, #22, #23, #24, #25, #26, #27, #28, #29, #30, #31, #32, #33, #34, #35, #36 ), #6 );
#2 = PRODUCT_DEFINITION_CONTEXT( '', #37, 'design' );
#3 = APPLICATION_PROTOCOL_DEFINITION( 'INTERNATIONAL STANDARD', 'automotive_design', 1994, #37 );
#4 = PRODUCT_CATEGORY_RELATIONSHIP( 'NONE', 'NONE', #38, #39 );
#5 = SHAPE_DEFINITION_REPRESENTATION( #40, #41 );
#6 =  ( GEOMETRIC_REPRESENTATION_CONTEXT( 3 )GLOBAL_UNCERTAINTY_ASSIGNED_CONTEXT( ( #44 ) )GLOBAL_UNIT_ASSIGNED_CONTEXT( ( #46, #47, #48 ) )REPRESENTATION_CONTEXT( 'NONE', 'WORKSPACE' ) );
#10 = STYLED_ITEM( '', ( #50 ), #51 );
#11 = STYLED_ITEM( '', ( #52 ), #53 );
#12 = STYLED_ITEM( '', ( #54 ), #55 );
#13 = STYLED_ITEM( '', ( #56 ), #57 );
#14 = STYLED_ITEM( '', ( #58 ), #59 );
#15 = STYLED_ITEM( '', ( #60 ), #61 );
#16 = STYLED_ITEM( '', ( #62 ), #63 );
#17 = STYLED_ITEM( '', ( #64 ), #65 );
#18 = STYLED_ITEM( '', ( #66 ), #67 );
#19 = STYLED_ITEM( '', ( #68 ), #69 );
#20 = STYLED_ITEM( '', ( #70 ), #71 );
#21 = STYLED_ITEM( '', ( #72 ), #73 );
#22 = STYLED_ITEM( '', ( #74 ), #75 );
#23 = STYLED_ITEM( '', ( #76 ), #77 );
#24 = STYLED_ITEM( '', ( #78 ), #79 );
#25 = STYLED_ITEM( '', ( #80 ), #81 );
#26 = STYLED_ITEM( '', ( #82 ), #83 );
#27 = STYLED_ITEM( '', ( #84 ), #85 );
#28 = STYLED_ITEM( '', ( #86 ), #87 );
#29 = STYLED_ITEM( '', ( #88 ), #89 );
#30 = STYLED_ITEM( '', ( #90 ), #91 );
#31 = STYLED_ITEM( '', ( #92 ), #93 );
#32 = STYLED_ITEM( '', ( #94 ), #95 );
#33 = STYLED_ITEM( '', ( #96 ), #97 );
#34 = STYLED_ITEM( '', ( #98 ), #99 );
#35 = STYLED_ITEM( '', ( #100 ), #101 );
#36 = STYLED_ITEM( '', ( #102 ), #103 );
#37 = APPLICATION_CONTEXT( ' ' );
#38 = PRODUCT_CATEGORY( 'part', 'NONE' );
#39 = PRODUCT_RELATED_PRODUCT_CATEGORY( 'detail', ' ', ( #104 ) );
#40 = PRODUCT_DEFINITION_SHAPE( 'NONE', 'NONE', #105 );
#41 = ADVANCED_BREP_SHAPE_REPRESENTATION( '1', ( #99, #106 ), #6 );
#44 = UNCERTAINTY_MEASURE_WITH_UNIT( LENGTH_MEASURE( 1.00000000000000E-006 ), #46, '', '' );
#46 =  ( CONVERSION_BASED_UNIT( 'MILLIMETRE', #109 )LENGTH_UNIT(  )NAMED_UNIT( #112 ) );
#47 =  ( NAMED_UNIT( #114 )PLANE_ANGLE_UNIT(  )SI_UNIT( $, .RADIAN. ) );
#48 =  ( NAMED_UNIT( #114 )SOLID_ANGLE_UNIT(  )SI_UNIT( $, .STERADIAN. ) );
#50 = PRESENTATION_STYLE_ASSIGNMENT( ( #120 ) );
#51 = VERTEX_POINT( '', #121 );
#52 = PRESENTATION_STYLE_ASSIGNMENT( ( #122 ) );
#53 = ADVANCED_FACE( '', ( #123 ), #124, .F. );
#54 = PRESENTATION_STYLE_ASSIGNMENT( ( #125 ) );
#55 = ADVANCED_FACE( '', ( #126, #127 ), #128, .T. );
#56 = PRESENTATION_STYLE_ASSIGNMENT( ( #129 ) );
#57 = EDGE_CURVE( '', #67, #93, #130, .T. );
#58 = PRESENTATION_STYLE_ASSIGNMENT( ( #131 ) );
#59 = ADVANCED_FACE( '', ( #132 ), #133, .T. );
#60 = PRESENTATION_STYLE_ASSIGNMENT( ( #134 ) );
#61 = ADVANCED_FACE( '', ( #135, #136 ), #137, .F. );
#62 = PRESENTATION_STYLE_ASSIGNMENT( ( #138 ) );
#63 = VERTEX_POINT( '', #139 );
#64 = PRESENTATION_STYLE_ASSIGNMENT( ( #140 ) );
#65 = EDGE_CURVE( '', #89, #63, #141, .T. );
#66 = PRESENTATION_STYLE_ASSIGNMENT( ( #142 ) );
#67 = VERTEX_POINT( '', #143 );
#68 = PRESENTATION_STYLE_ASSIGNMENT( ( #144 ) );
#69 = EDGE_CURVE( '', #63, #89, #145, .T. );
#70 = PRESENTATION_STYLE_ASSIGNMENT( ( #146 ) );
#71 = VERTEX_POINT( '', #147 );
#72 = PRESENTATION_STYLE_ASSIGNMENT( ( #148 ) );
#73 = ADVANCED_FACE( '', ( #149 ), #150, .T. );
#74 = PRESENTATION_STYLE_ASSIGNMENT( ( #151 ) );
#75 = EDGE_CURVE( '', #93, #67, #152, .T. );
#76 = PRESENTATION_STYLE_ASSIGNMENT( ( #153 ) );
#77 = ADVANCED_FACE( '', ( #154 ), #155, .F. );
#78 = PRESENTATION_STYLE_ASSIGNMENT( ( #156 ) );
#79 = EDGE_CURVE( '', #89, #101, #157, .T. );
#80 = PRESENTATION_STYLE_ASSIGNMENT( ( #158 ) );
#81 = EDGE_CURVE( '', #67, #51, #159, .T. );
#82 = PRESENTATION_STYLE_ASSIGNMENT( ( #160 ) );
#83 = EDGE_CURVE( '', #91, #51, #161, .T. );
#84 = PRESENTATION_STYLE_ASSIGNMENT( ( #162 ) );
#85 = EDGE_CURVE( '', #51, #91, #163, .T. );
#86 = PRESENTATION_STYLE_ASSIGNMENT( ( #164 ) );
#87 = EDGE_CURVE( '', #101, #71, #165, .T. );
#88 = PRESENTATION_STYLE_ASSIGNMENT( ( #166 ) );
#89 = VERTEX_POINT( '', #167 );
#90 = PRESENTATION_STYLE_ASSIGNMENT( ( #168 ) );
#91 = VERTEX_POINT( '', #169 );
#92 = PRESENTATION_STYLE_ASSIGNMENT( ( #170 ) );
#93 = VERTEX_POINT( '', #171 );
#94 = PRESENTATION_STYLE_ASSIGNMENT( ( #172 ) );
#95 = EDGE_CURVE( '', #71, #63, #173, .T. );
#96 = PRESENTATION_STYLE_ASSIGNMENT( ( #174 ) );
#97 = EDGE_CURVE( '', #91, #93, #175, .T. );
#98 = PRESENTATION_STYLE_ASSIGNMENT( ( #176 ) );
#99 = MANIFOLD_SOLID_BREP( '1', #177 );
#100 = PRESENTATION_STYLE_ASSIGNMENT( ( #178 ) );
#101 = VERTEX_POINT( '', #179 );
#102 = PRESENTATION_STYLE_ASSIGNMENT( ( #180 ) );
#103 = EDGE_CURVE( '', #71, #101, #181, .T. );
#104 = PRODUCT( '1', '1', 'PART-1-DESC', ( #182 ) );
#105 = PRODUCT_DEFINITION( 'NONE', 'NONE', #183, #2 );
#106 = AXIS2_PLACEMENT_3D( '', #184, #185, #186 );
#109 = LENGTH_MEASURE_WITH_UNIT( LENGTH_MEASURE( 1.00000000000000 ), #187 );
#112 = DIMENSIONAL_EXPONENTS( 1.00000000000000, 0.000000000000000, 0.000000000000000, 0.000000000000000, 0.000000000000000, 0.000000000000000, 0.000000000000000 );
#114 = DIMENSIONAL_EXPONENTS( 0.000000000000000, 0.000000000000000, 0.000000000000000, 0.000000000000000, 0.000000000000000, 0.000000000000000, 0.000000000000000 );
#120 = POINT_STYLE( ' ', #188, POSITIVE_LENGTH_MEASURE( 1.00000000000000E-006 ), #189 );
#121 = CARTESIAN_POINT( '', ( 0.000000000000000, 1.95937016611580E-015, 16.0000000000000 ) );
#122 = SURFACE_STYLE_USAGE( .BOTH., #190 );
#123 = FACE_OUTER_BOUND( '', #191, .T. );
#124 = CYLINDRICAL_SURFACE( '', #192, 13.1000000000000 );
#125 = SURFACE_STYLE_USAGE( .BOTH., #193 );
#126 = FACE_OUTER_BOUND( '', #194, .T. );
#127 = FACE_BOUND( '', #195, .T. );
#128 = PLANE( '', #196 );
#129 = CURVE_STYLE( '', #197, POSITIVE_LENGTH_MEASURE( 1.00000000000000E-006 ), #198 );
#130 = CIRCLE( '', #199, 16.0000000000000 );
#131 = SURFACE_STYLE_USAGE( .BOTH., #200 );
#132 = FACE_OUTER_BOUND( '', #201, .T. );
#133 = CYLINDRICAL_SURFACE( '', #202, 16.0000000000000 );
#134 = SURFACE_STYLE_USAGE( .BOTH., #203 );
#135 = FACE_OUTER_BOUND( '', #204, .T. );
#136 = FACE_BOUND( '', #205, .T. );
#137 = PLANE( '', #206 );
#138 = POINT_STYLE( ' ', #207, POSITIVE_LENGTH_MEASURE( 1.00000000000000E-006 ), #208 );
#139 = CARTESIAN_POINT( '', ( 0.000000000000000, 1.60423432350731E-015, 13.1000000000000 ) );
#140 = CURVE_STYLE( '', #209, POSITIVE_LENGTH_MEASURE( 1.00000000000000E-006 ), #210 );
#141 = CIRCLE( '', #211, 13.1000000000000 );
#142 = POINT_STYLE( ' ', #212, POSITIVE_LENGTH_MEASURE( 1.00000000000000E-006 ), #213 );
#143 = CARTESIAN_POINT( '', ( 5000.00000000000, 1.95937016611580E-015, 16.0000000000000 ) );
#144 = CURVE_STYLE( '', #214, POSITIVE_LENGTH_MEASURE( 1.00000000000000E-006 ), #215 );
#145 = CIRCLE( '', #216, 13.1000000000000 );
#146 = POINT_STYLE( ' ', #217, POSITIVE_LENGTH_MEASURE( 1.00000000000000E-006 ), #218 );
#147 = CARTESIAN_POINT( '', ( 5000.00000000000, 1.60423432350731E-015, 13.1000000000000 ) );
#148 = SURFACE_STYLE_USAGE( .BOTH., #219 );
#149 = FACE_OUTER_BOUND( '', #220, .T. );
#150 = CYLINDRICAL_SURFACE( '', #221, 16.0000000000000 );
#151 = CURVE_STYLE( '', #222, POSITIVE_LENGTH_MEASURE( 1.00000000000000E-006 ), #223 );
#152 = CIRCLE( '', #224, 16.0000000000000 );
#153 = SURFACE_STYLE_USAGE( .BOTH., #225 );
#154 = FACE_OUTER_BOUND( '', #226, .T. );
#155 = CYLINDRICAL_SURFACE( '', #227, 13.1000000000000 );
#156 = CURVE_STYLE( '', #228, POSITIVE_LENGTH_MEASURE( 1.00000000000000E-006 ), #229 );
#157 = LINE( '', #230, #231 );
#158 = CURVE_STYLE( '', #232, POSITIVE_LENGTH_MEASURE( 1.00000000000000E-006 ), #233 );
#159 = LINE( '', #234, #235 );
#160 = CURVE_STYLE( '', #236, POSITIVE_LENGTH_MEASURE( 1.00000000000000E-006 ), #237 );
#161 = CIRCLE( '', #238, 16.0000000000000 );
#162 = CURVE_STYLE( '', #239, POSITIVE_LENGTH_MEASURE( 1.00000000000000E-006 ), #240 );
#163 = CIRCLE( '', #241, 16.0000000000000 );
#164 = CURVE_STYLE( '', #242, POSITIVE_LENGTH_MEASURE( 1.00000000000000E-006 ), #243 );
#165 = CIRCLE( '', #244, 13.1000000000000 );
#166 = POINT_STYLE( ' ', #245, POSITIVE_LENGTH_MEASURE( 1.00000000000000E-006 ), #246 );
#167 = CARTESIAN_POINT( '', ( 0.000000000000000, 0.000000000000000, -13.1000000000000 ) );
#168 = POINT_STYLE( ' ', #247, POSITIVE_LENGTH_MEASURE( 1.00000000000000E-006 ), #248 );
#169 = CARTESIAN_POINT( '', ( 0.000000000000000, 0.000000000000000, -16.0000000000000 ) );
#170 = POINT_STYLE( ' ', #249, POSITIVE_LENGTH_MEASURE( 1.00000000000000E-006 ), #250 );
#171 = CARTESIAN_POINT( '', ( 5000.00000000000, 0.000000000000000, -16.0000000000000 ) );
#172 = CURVE_STYLE( '', #251, POSITIVE_LENGTH_MEASURE( 1.00000000000000E-006 ), #252 );
#173 = LINE( '', #253, #254 );
#174 = CURVE_STYLE( '', #255, POSITIVE_LENGTH_MEASURE( 1.00000000000000E-006 ), #256 );
#175 = LINE( '', #257, #258 );
#176 = SURFACE_STYLE_USAGE( .BOTH., #259 );
#177 = CLOSED_SHELL( '', ( #59, #53, #77, #73, #55, #61 ) );
#178 = POINT_STYLE( ' ', #260, POSITIVE_LENGTH_MEASURE( 1.00000000000000E-006 ), #261 );
#179 = CARTESIAN_POINT( '', ( 5000.00000000000, 0.000000000000000, -13.1000000000000 ) );
#180 = CURVE_STYLE( '', #262, POSITIVE_LENGTH_MEASURE( 1.00000000000000E-006 ), #263 );
#181 = CIRCLE( '', #264, 13.1000000000000 );
#182 = PRODUCT_CONTEXT( '', #37, 'mechanical' );
#183 = PRODUCT_DEFINITION_FORMATION_WITH_SPECIFIED_SOURCE( ' ', 'NONE', #104, .NOT_KNOWN. );
#184 = CARTESIAN_POINT( '', ( 0.000000000000000, 0.000000000000000, 0.000000000000000 ) );
#185 = DIRECTION( '', ( 0.000000000000000, 0.000000000000000, 1.00000000000000 ) );
#186 = DIRECTION( '', ( 1.00000000000000, 0.000000000000000, 0.000000000000000 ) );
#187 =  ( NAMED_UNIT( #112 )LENGTH_UNIT(  )SI_UNIT( .MILLI., .METRE. ) );
#188 = PRE_DEFINED_MARKER( '' );
#189 = COLOUR_RGB( '', 0.689999997615810, 0.689999997615810, 0.689999997615810 );
#190 = SURFACE_SIDE_STYLE( '', ( #266 ) );
#191 = EDGE_LOOP( '', ( #267, #268, #269, #270 ) );
#192 = AXIS2_PLACEMENT_3D( '', #271, #272, #273 );
#193 = SURFACE_SIDE_STYLE( '', ( #274 ) );
#194 = EDGE_LOOP( '', ( #275, #276 ) );
#195 = EDGE_LOOP( '', ( #277, #278 ) );
#196 = AXIS2_PLACEMENT_3D( '', #279, #280, #281 );
#197 = DRAUGHTING_PRE_DEFINED_CURVE_FONT( 'continuous' );
#198 = COLOUR_RGB( '', 0.689999997615810, 0.689999997615810, 0.689999997615810 );
#199 = AXIS2_PLACEMENT_3D( '', #282, #283, #284 );
#200 = SURFACE_SIDE_STYLE( '', ( #285 ) );
#201 = EDGE_LOOP( '', ( #286, #287, #288, #289 ) );
#202 = AXIS2_PLACEMENT_3D( '', #290, #291, #292 );
#203 = SURFACE_SIDE_STYLE( '', ( #293 ) );
#204 = EDGE_LOOP( '', ( #294, #295 ) );
#205 = EDGE_LOOP( '', ( #296, #297 ) );
#206 = AXIS2_PLACEMENT_3D( '', #298, #299, #300 );
#207 = PRE_DEFINED_MARKER( '' );
#208 = COLOUR_RGB( '', 0.689999997615810, 0.689999997615810, 0.689999997615810 );
#209 = DRAUGHTING_PRE_DEFINED_CURVE_FONT( 'continuous' );
#210 = COLOUR_RGB( '', 0.689999997615810, 0.689999997615810, 0.689999997615810 );
#211 = AXIS2_PLACEMENT_3D( '', #301, #302, #303 );
#212 = PRE_DEFINED_MARKER( '' );
#213 = COLOUR_RGB( '', 0.689999997615810, 0.689999997615810, 0.689999997615810 );
#214 = DRAUGHTING_PRE_DEFINED_CURVE_FONT( 'continuous' );
#215 = COLOUR_RGB( '', 0.689999997615810, 0.689999997615810, 0.689999997615810 );
#216 = AXIS2_PLACEMENT_3D( '', #304, #305, #306 );
#217 = PRE_DEFINED_MARKER( '' );
#218 = COLOUR_RGB( '', 0.689999997615810, 0.689999997615810, 0.689999997615810 );
#219 = SURFACE_SIDE_STYLE( '', ( #307 ) );
#220 = EDGE_LOOP( '', ( #308, #309, #310, #311 ) );
#221 = AXIS2_PLACEMENT_3D( '', #312, #313, #314 );
#222 = DRAUGHTING_PRE_DEFINED_CURVE_FONT( 'continuous' );
#223 = COLOUR_RGB( '', 0.689999997615810, 0.689999997615810, 0.689999997615810 );
#224 = AXIS2_PLACEMENT_3D( '', #315, #316, #317 );
#225 = SURFACE_SIDE_STYLE( '', ( #318 ) );
#226 = EDGE_LOOP( '', ( #319, #320, #321, #322 ) );
#227 = AXIS2_PLACEMENT_3D( '', #323, #324, #325 );
#228 = DRAUGHTING_PRE_DEFINED_CURVE_FONT( 'continuous' );
#229 = COLOUR_RGB( '', 0.689999997615810, 0.689999997615810, 0.689999997615810 );
#230 = CARTESIAN_POINT( '', ( 0.000000000000000, -1.60423432350731E-015, -13.1000000000000 ) );
#231 = VECTOR( '', #326, 1.00000000000000 );
#232 = DRAUGHTING_PRE_DEFINED_CURVE_FONT( 'continuous' );
#233 = COLOUR_RGB( '', 0.689999997615810, 0.689999997615810, 0.689999997615810 );
#234 = CARTESIAN_POINT( '', ( 0.000000000000000, 1.95937016611580E-015, 16.0000000000000 ) );
#235 = VECTOR( '', #327, 1.00000000000000 );
#236 = DRAUGHTING_PRE_DEFINED_CURVE_FONT( 'continuous' );
#237 = COLOUR_RGB( '', 0.689999997615810, 0.689999997615810, 0.689999997615810 );
#238 = AXIS2_PLACEMENT_3D( '', #328, #329, #330 );
#239 = DRAUGHTING_PRE_DEFINED_CURVE_FONT( 'continuous' );
#240 = COLOUR_RGB( '', 0.689999997615810, 0.689999997615810, 0.689999997615810 );
#241 = AXIS2_PLACEMENT_3D( '', #331, #332, #333 );
#242 = DRAUGHTING_PRE_DEFINED_CURVE_FONT( 'continuous' );
#243 = COLOUR_RGB( '', 0.689999997615810, 0.689999997615810, 0.689999997615810 );
#244 = AXIS2_PLACEMENT_3D( '', #334, #335, #336 );
#245 = PRE_DEFINED_MARKER( '' );
#246 = COLOUR_RGB( '', 0.689999997615810, 0.689999997615810, 0.689999997615810 );
#247 = PRE_DEFINED_MARKER( '' );
#248 = COLOUR_RGB( '', 0.689999997615810, 0.689999997615810, 0.689999997615810 );
#249 = PRE_DEFINED_MARKER( '' );
#250 = COLOUR_RGB( '', 0.689999997615810, 0.689999997615810, 0.689999997615810 );
#251 = DRAUGHTING_PRE_DEFINED_CURVE_FONT( 'continuous' );
#252 = COLOUR_RGB( '', 0.689999997615810, 0.689999997615810, 0.689999997615810 );
#253 = CARTESIAN_POINT( '', ( 0.000000000000000, 1.60423432350731E-015, 13.1000000000000 ) );
#254 = VECTOR( '', #337, 1.00000000000000 );
#255 = DRAUGHTING_PRE_DEFINED_CURVE_FONT( 'continuous' );
#256 = COLOUR_RGB( '', 0.689999997615810, 0.689999997615810, 0.689999997615810 );
#257 = CARTESIAN_POINT( '', ( 0.000000000000000, -1.95937016611580E-015, -16.0000000000000 ) );
#258 = VECTOR( '', #338, 1.00000000000000 );
#259 = SURFACE_SIDE_STYLE( '', ( #339 ) );
#260 = PRE_DEFINED_MARKER( '' );
#261 = COLOUR_RGB( '', 0.689999997615810, 0.689999997615810, 0.689999997615810 );
#262 = DRAUGHTING_PRE_DEFINED_CURVE_FONT( 'continuous' );
#263 = COLOUR_RGB( '', 0.689999997615810, 0.689999997615810, 0.689999997615810 );
#264 = AXIS2_PLACEMENT_3D( '', #340, #341, #342 );
#266 = SURFACE_STYLE_FILL_AREA( #343 );
#267 = ORIENTED_EDGE( '', *, *, #79, .F. );
#268 = ORIENTED_EDGE( '', *, *, #69, .F. );
#269 = ORIENTED_EDGE( '', *, *, #95, .F. );
#270 = ORIENTED_EDGE( '', *, *, #103, .T. );
#271 = CARTESIAN_POINT( '', ( 0.000000000000000, 0.000000000000000, 0.000000000000000 ) );
#272 = DIRECTION( '', ( -1.00000000000000, -0.000000000000000, -0.000000000000000 ) );
#273 = DIRECTION( '', ( 0.000000000000000, 0.000000000000000, -1.00000000000000 ) );
#274 = SURFACE_STYLE_FILL_AREA( #344 );
#275 = ORIENTED_EDGE( '', *, *, #75, .F. );
#276 = ORIENTED_EDGE( '', *, *, #57, .F. );
#277 = ORIENTED_EDGE( '', *, *, #87, .F. );
#278 = ORIENTED_EDGE( '', *, *, #103, .F. );
#279 = CARTESIAN_POINT( '', ( 5000.00000000000, 0.000000000000000, 0.000000000000000 ) );
#280 = DIRECTION( '', ( 1.00000000000000, 0.000000000000000, 0.000000000000000 ) );
#281 = DIRECTION( '', ( 0.000000000000000, 0.000000000000000, -1.00000000000000 ) );
#282 = CARTESIAN_POINT( '', ( 5000.00000000000, 0.000000000000000, 0.000000000000000 ) );
#283 = DIRECTION( '', ( -1.00000000000000, 0.000000000000000, 0.000000000000000 ) );
#284 = DIRECTION( '', ( 0.000000000000000, 0.000000000000000, -1.00000000000000 ) );
#285 = SURFACE_STYLE_FILL_AREA( #345 );
#286 = ORIENTED_EDGE( '', *, *, #97, .F. );
#287 = ORIENTED_EDGE( '', *, *, #83, .T. );
#288 = ORIENTED_EDGE( '', *, *, #81, .F. );
#289 = ORIENTED_EDGE( '', *, *, #57, .T. );
#290 = CARTESIAN_POINT( '', ( 0.000000000000000, 0.000000000000000, 0.000000000000000 ) );
#291 = DIRECTION( '', ( -1.00000000000000, -0.000000000000000, -0.000000000000000 ) );
#292 = DIRECTION( '', ( 0.000000000000000, 0.000000000000000, -1.00000000000000 ) );
#293 = SURFACE_STYLE_FILL_AREA( #346 );
#294 = ORIENTED_EDGE( '', *, *, #83, .F. );
#295 = ORIENTED_EDGE( '', *, *, #85, .F. );
#296 = ORIENTED_EDGE( '', *, *, #65, .T. );
#297 = ORIENTED_EDGE( '', *, *, #69, .T. );
#298 = CARTESIAN_POINT( '', ( 0.000000000000000, 0.000000000000000, 0.000000000000000 ) );
#299 = DIRECTION( '', ( 1.00000000000000, 0.000000000000000, 0.000000000000000 ) );
#300 = DIRECTION( '', ( 0.000000000000000, 0.000000000000000, -1.00000000000000 ) );
#301 = CARTESIAN_POINT( '', ( 0.000000000000000, 0.000000000000000, 0.000000000000000 ) );
#302 = DIRECTION( '', ( 1.00000000000000, -0.000000000000000, 0.000000000000000 ) );
#303 = DIRECTION( '', ( 0.000000000000000, 0.000000000000000, -1.00000000000000 ) );
#304 = CARTESIAN_POINT( '', ( 0.000000000000000, 0.000000000000000, 0.000000000000000 ) );
#305 = DIRECTION( '', ( 1.00000000000000, -0.000000000000000, 0.000000000000000 ) );
#306 = DIRECTION( '', ( 0.000000000000000, 0.000000000000000, -1.00000000000000 ) );
#307 = SURFACE_STYLE_FILL_AREA( #347 );
#308 = ORIENTED_EDGE( '', *, *, #97, .T. );
#309 = ORIENTED_EDGE( '', *, *, #75, .T. );
#310 = ORIENTED_EDGE( '', *, *, #81, .T. );
#311 = ORIENTED_EDGE( '', *, *, #85, .T. );
#312 = CARTESIAN_POINT( '', ( 0.000000000000000, 0.000000000000000, 0.000000000000000 ) );
#313 = DIRECTION( '', ( -1.00000000000000, -0.000000000000000, -0.000000000000000 ) );
#314 = DIRECTION( '', ( 0.000000000000000, 0.000000000000000, -1.00000000000000 ) );
#315 = CARTESIAN_POINT( '', ( 5000.00000000000, 0.000000000000000, 0.000000000000000 ) );
#316 = DIRECTION( '', ( -1.00000000000000, 0.000000000000000, 0.000000000000000 ) );
#317 = DIRECTION( '', ( 0.000000000000000, 0.000000000000000, -1.00000000000000 ) );
#318 = SURFACE_STYLE_FILL_AREA( #348 );
#319 = ORIENTED_EDGE( '', *, *, #79, .T. );
#320 = ORIENTED_EDGE( '', *, *, #87, .T. );
#321 = ORIENTED_EDGE( '', *, *, #95, .T. );
#322 = ORIENTED_EDGE( '', *, *, #65, .F. );
#323 = CARTESIAN_POINT( '', ( 0.000000000000000, 0.000000000000000, 0.000000000000000 ) );
#324 = DIRECTION( '', ( -1.00000000000000, -0.000000000000000, -0.000000000000000 ) );
#325 = DIRECTION( '', ( 0.000000000000000, 0.000000000000000, -1.00000000000000 ) );
#326 = DIRECTION( '', ( 1.00000000000000, 0.000000000000000, 0.000000000000000 ) );
#327 = DIRECTION( '', ( -1.00000000000000, -0.000000000000000, -0.000000000000000 ) );
#328 = CARTESIAN_POINT( '', ( 0.000000000000000, 0.000000000000000, 0.000000000000000 ) );
#329 = DIRECTION( '', ( 1.00000000000000, -0.000000000000000, 0.000000000000000 ) );
#330 = DIRECTION( '', ( 0.000000000000000, 0.000000000000000, -1.00000000000000 ) );
#331 = CARTESIAN_POINT( '', ( 0.000000000000000, 0.000000000000000, 0.000000000000000 ) );
#332 = DIRECTION( '', ( 1.00000000000000, -0.000000000000000, 0.000000000000000 ) );
#333 = DIRECTION( '', ( 0.000000000000000, 0.000000000000000, -1.00000000000000 ) );
#334 = CARTESIAN_POINT( '', ( 5000.00000000000, 0.000000000000000, 0.000000000000000 ) );
#335 = DIRECTION( '', ( 1.00000000000000, 0.000000000000000, 0.000000000000000 ) );
#336 = DIRECTION( '', ( 0.000000000000000, 0.000000000000000, -1.00000000000000 ) );
#337 = DIRECTION( '', ( -1.00000000000000, 0.000000000000000, 0.000000000000000 ) );
#338 = DIRECTION( '', ( 1.00000000000000, 0.000000000000000, 0.000000000000000 ) );
#339 = SURFACE_STYLE_FILL_AREA( #349 );
#340 = CARTESIAN_POINT( '', ( 5000.00000000000, 0.000000000000000, 0.000000000000000 ) );
#341 = DIRECTION( '', ( 1.00000000000000, 0.000000000000000, 0.000000000000000 ) );
#342 = DIRECTION( '', ( 0.000000000000000, 0.000000000000000, -1.00000000000000 ) );
#343 = FILL_AREA_STYLE( '', ( #350 ) );
#344 = FILL_AREA_STYLE( '', ( #351 ) );
#345 = FILL_AREA_STYLE( '', ( #352 ) );
#346 = FILL_AREA_STYLE( '', ( #353 ) );
#347 = FILL_AREA_STYLE( '', ( #354 ) );
#348 = FILL_AREA_STYLE( '', ( #355 ) );
#349 = FILL_AREA_STYLE( '', ( #356 ) );
#350 = FILL_AREA_STYLE_COLOUR( '', #357 );
#351 = FILL_AREA_STYLE_COLOUR( '', #358 );
#352 = FILL_AREA_STYLE_COLOUR( '', #359 );
#353 = FILL_AREA_STYLE_COLOUR( '', #360 );
#354 = FILL_AREA_STYLE_COLOUR( '', #361 );
#355 = FILL_AREA_STYLE_COLOUR( '', #362 );
#356 = FILL_AREA_STYLE_COLOUR( '', #363 );
#357 = COLOUR_RGB( '', 0.689999997615810, 0.689999997615810, 0.689999997615810 );
#358 = COLOUR_RGB( '', 0.689999997615810, 0.689999997615810, 0.689999997615810 );
#359 = COLOUR_RGB( '', 0.689999997615810, 0.689999997615810, 0.689999997615810 );
#360 = COLOUR_RGB( '', 0.689999997615810, 0.689999997615810, 0.689999997615810 );
#361 = COLOUR_RGB( '', 0.689999997615810, 0.689999997615810, 0.689999997615810 );
#362 = COLOUR_RGB( '', 0.689999997615810, 0.689999997615810, 0.689999997615810 );
#363 = COLOUR_RGB( '', 0.689999997615810, 0.689999997615810, 0.689999997615810 );
ENDSEC;
END-ISO-10303-21;
