ISO-10303-21;
HEADER;
/****************************************************************
 * Generated by software with PDE/Lib inside                    *
 * PDElib Version v51a, created Mon 03/22/2010                  *
 * International Technegroup Inc. (www.iti-oh.com)              *
 ****************************************************************/
FILE_DESCRIPTION((''),'2;1');
FILE_NAME('R:\\Neue Zeichnungdateien ab Januar 2010\\Konstruktionsteile\\Gewinderohre\\Step\\113375.stp','2010-08-10T14:33:47',('DMK009'),(''),'Autodesk Inventor 2010','Autodesk Inventor 2010','');
FILE_SCHEMA(('AUTOMOTIVE_DESIGN { 1 0 10303 214 1 1 1 1 }'));
ENDSEC;
DATA;
#5=APPLICATION_CONTEXT('automotive design');
#6=APPLICATION_PROTOCOL_DEFINITION('International Standard','automotive_design',2001,#5);
#7=PRODUCT_CONTEXT('',#5,'mechanical');
#8=PRODUCT('Gewinderohre','Gewinderohre',$,(#7));
#9=PRODUCT_RELATED_PRODUCT_CATEGORY('part',$,(#8));
#10=PRODUCT_DEFINITION_FORMATION('',$,#8);
#11=PRODUCT_DEFINITION_CONTEXT('part definition',#5,'design');
#12=PRODUCT_DEFINITION('',$,#10,#11);
#18=(NAMED_UNIT(*)PLANE_ANGLE_UNIT()SI_UNIT($,.RADIAN.));
#19=DIMENSIONAL_EXPONENTS(0.0,0.0,0.0,0.0,0.0,0.0,0.0);
#20=PLANE_ANGLE_MEASURE_WITH_UNIT(PLANE_ANGLE_MEASURE(0.017453292500000),#18);
#24=(CONVERSION_BASED_UNIT('DEGREE',#20)NAMED_UNIT(#19)PLANE_ANGLE_UNIT());
#28=(NAMED_UNIT(*)SI_UNIT($,.STERADIAN.)SOLID_ANGLE_UNIT());
#32=(LENGTH_UNIT()NAMED_UNIT(*)SI_UNIT(.MILLI.,.METRE.));
#34=UNCERTAINTY_MEASURE_WITH_UNIT(LENGTH_MEASURE(0.010000000000000),#32,'DISTANCE_ACCURACY_VALUE','');
#36=(GEOMETRIC_REPRESENTATION_CONTEXT(3)GLOBAL_UNCERTAINTY_ASSIGNED_CONTEXT((#34))GLOBAL_UNIT_ASSIGNED_CONTEXT((#24,#28,#32))REPRESENTATION_CONTEXT('None','None'));
#37=AXIS2_PLACEMENT_3D('',#38,#39,#40);
#38=CARTESIAN_POINT('',(0.0,0.0,0.0));
#39=DIRECTION('',(0.0,0.0,1.0));
#40=DIRECTION('',(1.0,0.0,0.0));
#41=SHAPE_REPRESENTATION('',(#37),#36);
#42=PRODUCT_DEFINITION_SHAPE('','',#12);
#43=SHAPE_DEFINITION_REPRESENTATION(#42,#41);
#49=(NAMED_UNIT(*)PLANE_ANGLE_UNIT()SI_UNIT($,.RADIAN.));
#50=DIMENSIONAL_EXPONENTS(0.0,0.0,0.0,0.0,0.0,0.0,0.0);
#51=PLANE_ANGLE_MEASURE_WITH_UNIT(PLANE_ANGLE_MEASURE(0.017453292500000),#49);
#55=(CONVERSION_BASED_UNIT('DEGREE',#51)NAMED_UNIT(#50)PLANE_ANGLE_UNIT());
#59=(NAMED_UNIT(*)SI_UNIT($,.STERADIAN.)SOLID_ANGLE_UNIT());
#63=(LENGTH_UNIT()NAMED_UNIT(*)SI_UNIT(.MILLI.,.METRE.));
#65=UNCERTAINTY_MEASURE_WITH_UNIT(LENGTH_MEASURE(0.000001000000000),#63,'DISTANCE_ACCURACY_VALUE','');
#67=(GEOMETRIC_REPRESENTATION_CONTEXT(3)GLOBAL_UNCERTAINTY_ASSIGNED_CONTEXT((#65))GLOBAL_UNIT_ASSIGNED_CONTEXT((#55,#59,#63))REPRESENTATION_CONTEXT('','3D'));
#68=CARTESIAN_POINT('',(-14.250000000000000,-1.745064E-015,2000.0));
#69=CARTESIAN_POINT('',(-14.250000000000000,-1.745064E-015,0.0));
#70=CARTESIAN_POINT('',(-14.249999999999993,-14.249999999999998,2000.0));
#71=CARTESIAN_POINT('',(-14.249999999999993,-14.249999999999998,0.0));
#72=CARTESIAN_POINT('',(1.745064E-015,-14.250000000000000,2000.0));
#73=CARTESIAN_POINT('',(1.745064E-015,-14.250000000000000,0.0));
#74=CARTESIAN_POINT('',(14.249999999999998,-14.249999999999993,2000.0));
#75=CARTESIAN_POINT('',(14.249999999999998,-14.249999999999993,0.0));
#76=CARTESIAN_POINT('',(14.250000000000000,1.745064E-015,2000.0));
#77=CARTESIAN_POINT('',(14.250000000000000,1.745064E-015,0.0));
#78=CARTESIAN_POINT('',(14.249999999999993,14.249999999999998,2000.0));
#79=CARTESIAN_POINT('',(14.249999999999993,14.249999999999998,0.0));
#80=CARTESIAN_POINT('',(-1.745064E-015,14.250000000000000,2000.0));
#81=CARTESIAN_POINT('',(-1.745064E-015,14.250000000000000,0.0));
#82=CARTESIAN_POINT('',(-14.249999999999998,14.249999999999993,2000.0));
#83=CARTESIAN_POINT('',(-14.249999999999998,14.249999999999993,0.0));
#84=CARTESIAN_POINT('',(-14.250000000000000,-1.745064E-015,2000.0));
#85=CARTESIAN_POINT('',(-14.250000000000000,-1.745064E-015,0.0));
#93=(BOUNDED_SURFACE()B_SPLINE_SURFACE(1,2,((#68,#70,#72,#74,#76,#78,#80,#82,#84),(#69,#71,#73,#75,#77,#79,#81,#83,#85)),.UNSPECIFIED.,.F.,.T.,.U.)B_SPLINE_SURFACE_WITH_KNOTS((2,2),(3,2,2,2,3),(-140.389661167650160,-0.038783974667695),(0.0,22.383847656827275,44.767695313654549,67.151542970481827,89.535390627309098),.UNSPECIFIED.)GEOMETRIC_REPRESENTATION_ITEM()RATIONAL_B_SPLINE_SURFACE(((1.0,0.707106781186548,1.0,0.707106781186548,1.0,0.707106781186548,1.0,0.707106781186548,1.0),(1.0,0.707106781186548,1.0,0.707106781186548,1.0,0.707106781186548,1.0,0.707106781186548,1.0)))REPRESENTATION_ITEM('')SURFACE());
#94=CARTESIAN_POINT('',(-14.250000000000000,-1.745064E-015,0.0));
#95=VERTEX_POINT('',#94);
#96=CARTESIAN_POINT('',(0.0,0.0,0.0));
#97=DIRECTION('',(0.0,0.0,1.0));
#98=DIRECTION('',(1.0,0.0,0.0));
#99=AXIS2_PLACEMENT_3D('',#96,#97,#98);
#100=CIRCLE('',#99,14.250000000000000);
#101=EDGE_CURVE('',#95,#95,#100,.T.);
#102=ORIENTED_EDGE('',*,*,#101,.F.);
#103=EDGE_LOOP('',(#102));
#104=FACE_OUTER_BOUND('',#103,.T.);
#105=CARTESIAN_POINT('',(14.250000000000000,0.0,2000.0));
#106=VERTEX_POINT('',#105);
#107=CARTESIAN_POINT('',(0.0,0.0,2000.0));
#108=DIRECTION('',(0.0,0.0,-1.0));
#109=DIRECTION('',(1.0,0.0,0.0));
#110=AXIS2_PLACEMENT_3D('',#107,#108,#109);
#111=CIRCLE('',#110,14.250000000000000);
#112=EDGE_CURVE('',#106,#106,#111,.T.);
#113=ORIENTED_EDGE('',*,*,#112,.F.);
#114=EDGE_LOOP('',(#113));
#115=FACE_BOUND('',#114,.T.);
#116=ADVANCED_FACE('',(#104,#115),#93,.F.);
#117=CARTESIAN_POINT('',(0.0,0.0,0.0));
#118=DIRECTION('',(0.0,0.0,1.0));
#119=DIRECTION('',(-1.0,0.0,0.0));
#120=AXIS2_PLACEMENT_3D('',#117,#118,#119);
#121=CYLINDRICAL_SURFACE('',#120,16.624500000000001);
#122=CARTESIAN_POINT('',(16.624500000000001,2.035914E-015,2000.0));
#123=VERTEX_POINT('',#122);
#124=CARTESIAN_POINT('',(0.0,0.0,2000.0));
#125=DIRECTION('',(0.0,0.0,-1.0));
#126=DIRECTION('',(-1.0,0.0,0.0));
#127=AXIS2_PLACEMENT_3D('',#124,#125,#126);
#128=CIRCLE('',#127,16.624500000000001);
#129=EDGE_CURVE('',#123,#123,#128,.T.);
#130=ORIENTED_EDGE('',*,*,#129,.T.);
#131=EDGE_LOOP('',(#130));
#132=FACE_OUTER_BOUND('',#131,.T.);
#133=CARTESIAN_POINT('',(16.624500000000001,2.035914E-015,0.0));
#134=VERTEX_POINT('',#133);
#135=CARTESIAN_POINT('',(0.0,0.0,0.0));
#136=DIRECTION('',(0.0,0.0,-1.0));
#137=DIRECTION('',(-1.0,0.0,0.0));
#138=AXIS2_PLACEMENT_3D('',#135,#136,#137);
#139=CIRCLE('',#138,16.624500000000001);
#140=EDGE_CURVE('',#134,#134,#139,.T.);
#141=ORIENTED_EDGE('',*,*,#140,.F.);
#142=EDGE_LOOP('',(#141));
#143=FACE_BOUND('',#142,.T.);
#144=ADVANCED_FACE('',(#132,#143),#121,.T.);
#145=CARTESIAN_POINT('',(0.0,0.0,2000.0));
#146=DIRECTION('',(0.0,0.0,-1.0));
#147=DIRECTION('',(-1.0,0.0,0.0));
#148=AXIS2_PLACEMENT_3D('',#145,#146,#147);
#149=PLANE('',#148);
#150=ORIENTED_EDGE('',*,*,#129,.F.);
#151=EDGE_LOOP('',(#150));
#152=FACE_OUTER_BOUND('',#151,.T.);
#153=ORIENTED_EDGE('',*,*,#112,.T.);
#154=EDGE_LOOP('',(#153));
#155=FACE_BOUND('',#154,.T.);
#156=ADVANCED_FACE('',(#152,#155),#149,.F.);
#157=CARTESIAN_POINT('',(0.0,0.0,0.0));
#158=DIRECTION('',(0.0,0.0,-1.0));
#159=DIRECTION('',(-1.0,0.0,0.0));
#160=AXIS2_PLACEMENT_3D('',#157,#158,#159);
#161=PLANE('',#160);
#162=ORIENTED_EDGE('',*,*,#140,.T.);
#163=EDGE_LOOP('',(#162));
#164=FACE_OUTER_BOUND('',#163,.T.);
#165=ORIENTED_EDGE('',*,*,#101,.T.);
#166=EDGE_LOOP('',(#165));
#167=FACE_BOUND('',#166,.T.);
#168=ADVANCED_FACE('',(#164,#167),#161,.T.);
#169=CLOSED_SHELL('',(#116,#144,#156,#168));
#170=MANIFOLD_SOLID_BREP('Volumenk\S\vrper1',#169);
#171=COLOUR_RGB('Standard',0.752941012382507,0.752941012382507,0.752941012382507);
#172=FILL_AREA_STYLE_COLOUR('Standard',#171);
#173=FILL_AREA_STYLE('Standard',(#172));
#174=SURFACE_STYLE_FILL_AREA(#173);
#175=SURFACE_SIDE_STYLE('Standard',(#174));
#176=SURFACE_STYLE_USAGE(.BOTH.,#175);
#177=PRESENTATION_STYLE_ASSIGNMENT((#176));
#178=STYLED_ITEM('',(#177),#170);
#179=MECHANICAL_DESIGN_GEOMETRIC_PRESENTATION_REPRESENTATION('',(#178),#36);
#180=ADVANCED_BREP_SHAPE_REPRESENTATION('ABSR',(#170),#36);
#181=SHAPE_REPRESENTATION_RELATIONSHIP('SRR','None',#180,#41);
ENDSEC;
END-ISO-10303-21;
