ISO-10303-21;
HEADER;
FILE_DESCRIPTION( ( 'STEP AP214' ), '1' );
FILE_NAME( 'p:/temp/worker_20/temp/exporttempdir_2192_898_rjPSP/format_0/22050002007(architecture400).stp', '2021-11-17T11:34:06', ( 'License CC BY-ND 4.0' ), ( 'CADENAS' ), ' ', 'PARTsolutions', ' ' );
FILE_SCHEMA( ( 'AUTOMOTIVE_DESIGN { 1 0 10303 214 1 1 1 1 }' ) );
ENDSEC;
DATA;
#1 = MECHANICAL_DESIGN_GEOMETRIC_PRESENTATION_REPRESENTATION( ' ', ( #10, #11, #12, #13, #14, #15, #16, #17, #18, #19, #20, #21 ), #6 );
#2 = PRODUCT_DEFINITION_CONTEXT( '', #22, 'design' );
#3 = APPLICATION_PROTOCOL_DEFINITION( 'international standard', 'automotive_design', 2001, #22 );
#4 = PRODUCT_CATEGORY_RELATIONSHIP( 'NONE', 'NONE', #23, #24 );
#5 = SHAPE_DEFINITION_REPRESENTATION( #25, #26 );
#6 =  ( GEOMETRIC_REPRESENTATION_CONTEXT( 3 )GLOBAL_UNCERTAINTY_ASSIGNED_CONTEXT( ( #29 ) )GLOBAL_UNIT_ASSIGNED_CONTEXT( ( #31, #32, #33 ) )REPRESENTATION_CONTEXT( 'NONE', 'WORKSPACE' ) );
#10 = STYLED_ITEM( '', ( #35 ), #36 );
#11 = STYLED_ITEM( '', ( #37 ), #38 );
#12 = STYLED_ITEM( '', ( #39 ), #40 );
#13 = STYLED_ITEM( '', ( #41 ), #42 );
#14 = STYLED_ITEM( '', ( #43 ), #44 );
#15 = STYLED_ITEM( '', ( #45 ), #46 );
#16 = STYLED_ITEM( '', ( #47 ), #48 );
#17 = STYLED_ITEM( '', ( #49 ), #50 );
#18 = STYLED_ITEM( '', ( #51 ), #52 );
#19 = STYLED_ITEM( '', ( #53 ), #54 );
#20 = STYLED_ITEM( '', ( #55 ), #56 );
#21 = STYLED_ITEM( '', ( #57 ), #58 );
#22 = APPLICATION_CONTEXT( 'core data for automotive mechanical design processes' );
#23 = PRODUCT_CATEGORY( 'part', 'NONE' );
#24 = PRODUCT_RELATED_PRODUCT_CATEGORY( 'detail', ' ', ( #59 ) );
#25 = PRODUCT_DEFINITION_SHAPE( 'NONE', 'NONE', #60 );
#26 = ADVANCED_BREP_SHAPE_REPRESENTATION( '_22050002007(architecture400)', ( #61, #62 ), #6 );
#29 = UNCERTAINTY_MEASURE_WITH_UNIT( LENGTH_MEASURE( 0.00100000000000000 ), #31, '', '' );
#31 =  ( CONVERSION_BASED_UNIT( 'MILLIMETRE', #65 )LENGTH_UNIT(  )NAMED_UNIT( #68 ) );
#32 =  ( NAMED_UNIT( #70 )PLANE_ANGLE_UNIT(  )SI_UNIT( $, .RADIAN. ) );
#33 =  ( NAMED_UNIT( #70 )SI_UNIT( $, .STERADIAN. )SOLID_ANGLE_UNIT(  ) );
#35 = PRESENTATION_STYLE_ASSIGNMENT( ( #76 ) );
#36 = ADVANCED_FACE( '', ( #77, #78 ), #79, .F. );
#37 = PRESENTATION_STYLE_ASSIGNMENT( ( #80 ) );
#38 = ADVANCED_FACE( '', ( #81, #82 ), #83, .F. );
#39 = PRESENTATION_STYLE_ASSIGNMENT( ( #84 ) );
#40 = ADVANCED_FACE( '', ( #85 ), #86, .F. );
#41 = PRESENTATION_STYLE_ASSIGNMENT( ( #87 ) );
#42 = ADVANCED_FACE( '', ( #88, #89 ), #90, .T. );
#43 = PRESENTATION_STYLE_ASSIGNMENT( ( #91 ) );
#44 = ADVANCED_FACE( '', ( #92, #93 ), #94, .T. );
#45 = PRESENTATION_STYLE_ASSIGNMENT( ( #95 ) );
#46 = ADVANCED_FACE( '', ( #96, #97 ), #98, .F. );
#47 = PRESENTATION_STYLE_ASSIGNMENT( ( #99 ) );
#48 = ADVANCED_FACE( '', ( #100, #101 ), #102, .F. );
#49 = PRESENTATION_STYLE_ASSIGNMENT( ( #103 ) );
#50 = ADVANCED_FACE( '', ( #104, #105 ), #106, .T. );
#51 = PRESENTATION_STYLE_ASSIGNMENT( ( #107 ) );
#52 = ADVANCED_FACE( '', ( #108, #109 ), #110, .T. );
#53 = PRESENTATION_STYLE_ASSIGNMENT( ( #111 ) );
#54 = ADVANCED_FACE( '', ( #112, #113 ), #114, .F. );
#55 = PRESENTATION_STYLE_ASSIGNMENT( ( #115 ) );
#56 = ADVANCED_FACE( '', ( #116 ), #117, .T. );
#57 = PRESENTATION_STYLE_ASSIGNMENT( ( #118 ) );
#58 = ADVANCED_FACE( '', ( #119, #120 ), #121, .F. );
#59 = PRODUCT( '_22050002007(architecture400)', '_22050002007(architecture400)', 'PART-_22050002007(architecture400)-DESC', ( #122 ) );
#60 = PRODUCT_DEFINITION( 'NONE', 'NONE', #123, #2 );
#61 = MANIFOLD_SOLID_BREP( '_22050002007(architecture400)', #124 );
#62 = AXIS2_PLACEMENT_3D( '', #125, #126, #127 );
#65 = LENGTH_MEASURE_WITH_UNIT( LENGTH_MEASURE( 1.00000000000000 ), #128 );
#68 = DIMENSIONAL_EXPONENTS( 1.00000000000000, 0.000000000000000, 0.000000000000000, 0.000000000000000, 0.000000000000000, 0.000000000000000, 0.000000000000000 );
#70 = DIMENSIONAL_EXPONENTS( 0.000000000000000, 0.000000000000000, 0.000000000000000, 0.000000000000000, 0.000000000000000, 0.000000000000000, 0.000000000000000 );
#76 = SURFACE_STYLE_USAGE( .BOTH., #129 );
#77 = FACE_OUTER_BOUND( '', #130, .T. );
#78 = FACE_OUTER_BOUND( '', #131, .T. );
#79 = CYLINDRICAL_SURFACE( '', #132, 8.50000000000000 );
#80 = SURFACE_STYLE_USAGE( .BOTH., #133 );
#81 = FACE_BOUND( '', #134, .T. );
#82 = FACE_OUTER_BOUND( '', #135, .T. );
#83 = PLANE( '', #136 );
#84 = SURFACE_STYLE_USAGE( .BOTH., #137 );
#85 = FACE_OUTER_BOUND( '', #138, .T. );
#86 = SPHERICAL_SURFACE( '', #139, 8.50000000000000 );
#87 = SURFACE_STYLE_USAGE( .BOTH., #140 );
#88 = FACE_OUTER_BOUND( '', #141, .T. );
#89 = FACE_OUTER_BOUND( '', #142, .T. );
#90 = CYLINDRICAL_SURFACE( '', #143, 14.5000000000000 );
#91 = SURFACE_STYLE_USAGE( .BOTH., #144 );
#92 = FACE_OUTER_BOUND( '', #145, .T. );
#93 = FACE_OUTER_BOUND( '', #146, .T. );
#94 = CYLINDRICAL_SURFACE( '', #147, 14.5000000000000 );
#95 = SURFACE_STYLE_USAGE( .BOTH., #148 );
#96 = FACE_OUTER_BOUND( '', #149, .T. );
#97 = FACE_OUTER_BOUND( '', #150, .T. );
#98 = CYLINDRICAL_SURFACE( '', #151, 8.50000000000000 );
#99 = SURFACE_STYLE_USAGE( .BOTH., #152 );
#100 = FACE_OUTER_BOUND( '', #153, .T. );
#101 = FACE_OUTER_BOUND( '', #154, .T. );
#102 = CYLINDRICAL_SURFACE( '', #155, 10.0000000000000 );
#103 = SURFACE_STYLE_USAGE( .BOTH., #156 );
#104 = FACE_OUTER_BOUND( '', #157, .T. );
#105 = FACE_BOUND( '', #158, .T. );
#106 = PLANE( '', #159 );
#107 = SURFACE_STYLE_USAGE( .BOTH., #160 );
#108 = FACE_BOUND( '', #161, .T. );
#109 = FACE_OUTER_BOUND( '', #162, .T. );
#110 = PLANE( '', #163 );
#111 = SURFACE_STYLE_USAGE( .BOTH., #164 );
#112 = FACE_BOUND( '', #165, .T. );
#113 = FACE_OUTER_BOUND( '', #166, .T. );
#114 = PLANE( '', #167 );
#115 = SURFACE_STYLE_USAGE( .BOTH., #168 );
#116 = FACE_OUTER_BOUND( '', #169, .T. );
#117 = SPHERICAL_SURFACE( '', #170, 14.5000000000000 );
#118 = SURFACE_STYLE_USAGE( .BOTH., #171 );
#119 = FACE_OUTER_BOUND( '', #172, .T. );
#120 = FACE_OUTER_BOUND( '', #173, .T. );
#121 = CYLINDRICAL_SURFACE( '', #174, 10.0000000000000 );
#122 = PRODUCT_CONTEXT( '', #22, 'mechanical' );
#123 = PRODUCT_DEFINITION_FORMATION_WITH_SPECIFIED_SOURCE( ' ', 'NONE', #59, .NOT_KNOWN. );
#124 = CLOSED_SHELL( '', ( #54, #44, #56, #42, #46, #52, #48, #38, #58, #50, #36, #40 ) );
#125 = CARTESIAN_POINT( '', ( 0.000000000000000, 0.000000000000000, 0.000000000000000 ) );
#126 = DIRECTION( '', ( 0.000000000000000, 0.000000000000000, 1.00000000000000 ) );
#127 = DIRECTION( '', ( 1.00000000000000, 0.000000000000000, 0.000000000000000 ) );
#128 =  ( LENGTH_UNIT(  )NAMED_UNIT( #68 )SI_UNIT( .MILLI., .METRE. ) );
#129 = SURFACE_SIDE_STYLE( '', ( #176 ) );
#130 = EDGE_LOOP( '', ( #177 ) );
#131 = EDGE_LOOP( '', ( #178, #179 ) );
#132 = AXIS2_PLACEMENT_3D( '', #180, #181, #182 );
#133 = SURFACE_SIDE_STYLE( '', ( #183 ) );
#134 = EDGE_LOOP( '', ( #184 ) );
#135 = EDGE_LOOP( '', ( #185 ) );
#136 = AXIS2_PLACEMENT_3D( '', #186, #187, #188 );
#137 = SURFACE_SIDE_STYLE( '', ( #189 ) );
#138 = EDGE_LOOP( '', ( #190, #191 ) );
#139 = AXIS2_PLACEMENT_3D( '', #192, #193, #194 );
#140 = SURFACE_SIDE_STYLE( '', ( #195 ) );
#141 = EDGE_LOOP( '', ( #196 ) );
#142 = EDGE_LOOP( '', ( #197, #198 ) );
#143 = AXIS2_PLACEMENT_3D( '', #199, #200, #201 );
#144 = SURFACE_SIDE_STYLE( '', ( #202 ) );
#145 = EDGE_LOOP( '', ( #203 ) );
#146 = EDGE_LOOP( '', ( #204, #205 ) );
#147 = AXIS2_PLACEMENT_3D( '', #206, #207, #208 );
#148 = SURFACE_SIDE_STYLE( '', ( #209 ) );
#149 = EDGE_LOOP( '', ( #210, #211 ) );
#150 = EDGE_LOOP( '', ( #212 ) );
#151 = AXIS2_PLACEMENT_3D( '', #213, #214, #215 );
#152 = SURFACE_SIDE_STYLE( '', ( #216 ) );
#153 = EDGE_LOOP( '', ( #217 ) );
#154 = EDGE_LOOP( '', ( #218 ) );
#155 = AXIS2_PLACEMENT_3D( '', #219, #220, #221 );
#156 = SURFACE_SIDE_STYLE( '', ( #222 ) );
#157 = EDGE_LOOP( '', ( #223 ) );
#158 = EDGE_LOOP( '', ( #224 ) );
#159 = AXIS2_PLACEMENT_3D( '', #225, #226, #227 );
#160 = SURFACE_SIDE_STYLE( '', ( #228 ) );
#161 = EDGE_LOOP( '', ( #229 ) );
#162 = EDGE_LOOP( '', ( #230 ) );
#163 = AXIS2_PLACEMENT_3D( '', #231, #232, #233 );
#164 = SURFACE_SIDE_STYLE( '', ( #234 ) );
#165 = EDGE_LOOP( '', ( #235 ) );
#166 = EDGE_LOOP( '', ( #236 ) );
#167 = AXIS2_PLACEMENT_3D( '', #237, #238, #239 );
#168 = SURFACE_SIDE_STYLE( '', ( #240 ) );
#169 = EDGE_LOOP( '', ( #241, #242 ) );
#170 = AXIS2_PLACEMENT_3D( '', #243, #244, #245 );
#171 = SURFACE_SIDE_STYLE( '', ( #246 ) );
#172 = EDGE_LOOP( '', ( #247 ) );
#173 = EDGE_LOOP( '', ( #248 ) );
#174 = AXIS2_PLACEMENT_3D( '', #249, #250, #251 );
#176 = SURFACE_STYLE_FILL_AREA( #252 );
#177 = ORIENTED_EDGE( '', *, *, #253, .T. );
#178 = ORIENTED_EDGE( '', *, *, #254, .F. );
#179 = ORIENTED_EDGE( '', *, *, #255, .F. );
#180 = CARTESIAN_POINT( '', ( 18.0312229202570, 0.000000000000000, 26.0312229202570 ) );
#181 = DIRECTION( '', ( -0.707106781186548, 0.000000000000000, -0.707106781186547 ) );
#182 = DIRECTION( '', ( 0.707106781186547, 0.000000000000000, -0.707106781186548 ) );
#183 = SURFACE_STYLE_FILL_AREA( #256 );
#184 = ORIENTED_EDGE( '', *, *, #257, .F. );
#185 = ORIENTED_EDGE( '', *, *, #258, .T. );
#186 = CARTESIAN_POINT( '', ( 7.07106781186547, 0.000000000000000, 35.5771644662754 ) );
#187 = DIRECTION( '', ( -0.707106781186548, 0.000000000000000, -0.707106781186547 ) );
#188 = DIRECTION( '', ( -0.707106781186547, 0.000000000000000, 0.707106781186548 ) );
#189 = SURFACE_STYLE_FILL_AREA( #259 );
#190 = ORIENTED_EDGE( '', *, *, #260, .F. );
#191 = ORIENTED_EDGE( '', *, *, #255, .T. );
#192 = CARTESIAN_POINT( '', ( 2.60208521396521E-15, 0.000000000000000, 8.00000000000000 ) );
#193 = DIRECTION( '', ( 0.000000000000000, 0.000000000000000, 1.00000000000000 ) );
#194 = DIRECTION( '', ( -1.00000000000000, 0.000000000000000, 0.000000000000000 ) );
#195 = SURFACE_STYLE_FILL_AREA( #261 );
#196 = ORIENTED_EDGE( '', *, *, #258, .F. );
#197 = ORIENTED_EDGE( '', *, *, #262, .T. );
#198 = ORIENTED_EDGE( '', *, *, #263, .T. );
#199 = CARTESIAN_POINT( '', ( 17.3241161390704, 0.000000000000000, 25.3241161390704 ) );
#200 = DIRECTION( '', ( -0.707106781186548, 0.000000000000000, -0.707106781186547 ) );
#201 = DIRECTION( '', ( 0.707106781186547, 0.000000000000000, -0.707106781186548 ) );
#202 = SURFACE_STYLE_FILL_AREA( #264 );
#203 = ORIENTED_EDGE( '', *, *, #265, .T. );
#204 = ORIENTED_EDGE( '', *, *, #263, .F. );
#205 = ORIENTED_EDGE( '', *, *, #266, .F. );
#206 = CARTESIAN_POINT( '', ( 0.000000000000000, 0.000000000000000, 8.00000000000000 ) );
#207 = DIRECTION( '', ( 0.000000000000000, -0.000000000000000, 1.00000000000000 ) );
#208 = DIRECTION( '', ( -1.00000000000000, 0.000000000000000, 0.000000000000000 ) );
#209 = SURFACE_STYLE_FILL_AREA( #267 );
#210 = ORIENTED_EDGE( '', *, *, #254, .T. );
#211 = ORIENTED_EDGE( '', *, *, #260, .T. );
#212 = ORIENTED_EDGE( '', *, *, #268, .F. );
#213 = CARTESIAN_POINT( '', ( 0.000000000000000, 0.000000000000000, 16.5000000000000 ) );
#214 = DIRECTION( '', ( -0.000000000000000, 0.000000000000000, -1.00000000000000 ) );
#215 = DIRECTION( '', ( 1.00000000000000, 0.000000000000000, 0.000000000000000 ) );
#216 = SURFACE_STYLE_FILL_AREA( #269 );
#217 = ORIENTED_EDGE( '', *, *, #270, .T. );
#218 = ORIENTED_EDGE( '', *, *, #271, .T. );
#219 = CARTESIAN_POINT( '', ( 0.000000000000000, 0.000000000000000, 16.5000000000000 ) );
#220 = DIRECTION( '', ( -0.000000000000000, 0.000000000000000, -1.00000000000000 ) );
#221 = DIRECTION( '', ( 1.00000000000000, 0.000000000000000, 0.000000000000000 ) );
#222 = SURFACE_STYLE_FILL_AREA( #272 );
#223 = ORIENTED_EDGE( '', *, *, #273, .T. );
#224 = ORIENTED_EDGE( '', *, *, #253, .F. );
#225 = CARTESIAN_POINT( '', ( -0.353553390593271, 0.000000000000000, 19.6672618895780 ) );
#226 = DIRECTION( '', ( 0.707106781186548, -0.000000000000000, 0.707106781186547 ) );
#227 = DIRECTION( '', ( 0.707106781186547, 0.000000000000000, -0.707106781186548 ) );
#228 = SURFACE_STYLE_FILL_AREA( #274 );
#229 = ORIENTED_EDGE( '', *, *, #268, .T. );
#230 = ORIENTED_EDGE( '', *, *, #270, .F. );
#231 = CARTESIAN_POINT( '', ( -10.0000000000000, 0.000000000000000, 0.000000000000000 ) );
#232 = DIRECTION( '', ( 0.000000000000000, 0.000000000000000, -1.00000000000000 ) );
#233 = DIRECTION( '', ( -1.00000000000000, 0.000000000000000, 0.000000000000000 ) );
#234 = SURFACE_STYLE_FILL_AREA( #275 );
#235 = ORIENTED_EDGE( '', *, *, #271, .F. );
#236 = ORIENTED_EDGE( '', *, *, #265, .F. );
#237 = CARTESIAN_POINT( '', ( 0.000000000000000, 0.000000000000000, -16.5000000000000 ) );
#238 = DIRECTION( '', ( 0.000000000000000, 0.000000000000000, 1.00000000000000 ) );
#239 = DIRECTION( '', ( 1.00000000000000, 0.000000000000000, -0.000000000000000 ) );
#240 = SURFACE_STYLE_FILL_AREA( #276 );
#241 = ORIENTED_EDGE( '', *, *, #266, .T. );
#242 = ORIENTED_EDGE( '', *, *, #262, .F. );
#243 = CARTESIAN_POINT( '', ( -8.67361737988404E-16, 0.000000000000000, 8.00000000000000 ) );
#244 = DIRECTION( '', ( 0.000000000000000, 0.000000000000000, 1.00000000000000 ) );
#245 = DIRECTION( '', ( 1.00000000000000, 0.000000000000000, 0.000000000000000 ) );
#246 = SURFACE_STYLE_FILL_AREA( #277 );
#247 = ORIENTED_EDGE( '', *, *, #257, .T. );
#248 = ORIENTED_EDGE( '', *, *, #273, .F. );
#249 = CARTESIAN_POINT( '', ( 18.0312229202570, 0.000000000000000, 26.0312229202570 ) );
#250 = DIRECTION( '', ( -0.707106781186548, 0.000000000000000, -0.707106781186548 ) );
#251 = DIRECTION( '', ( 0.707106781186547, 0.000000000000000, -0.707106781186548 ) );
#252 = FILL_AREA_STYLE( '', ( #278 ) );
#253 = EDGE_CURVE( '', #279, #279, #280, .T. );
#254 = EDGE_CURVE( '', #281, #282, #283, .T. );
#255 = EDGE_CURVE( '', #282, #281, #284, .T. );
#256 = FILL_AREA_STYLE( '', ( #285 ) );
#257 = EDGE_CURVE( '', #286, #286, #287, .F. );
#258 = EDGE_CURVE( '', #288, #288, #289, .T. );
#259 = FILL_AREA_STYLE( '', ( #290 ) );
#260 = EDGE_CURVE( '', #282, #281, #291, .T. );
#261 = FILL_AREA_STYLE( '', ( #292 ) );
#262 = EDGE_CURVE( '', #293, #294, #295, .T. );
#263 = EDGE_CURVE( '', #294, #293, #296, .F. );
#264 = FILL_AREA_STYLE( '', ( #297 ) );
#265 = EDGE_CURVE( '', #298, #298, #299, .T. );
#266 = EDGE_CURVE( '', #293, #294, #300, .T. );
#267 = FILL_AREA_STYLE( '', ( #301 ) );
#268 = EDGE_CURVE( '', #302, #302, #303, .T. );
#269 = FILL_AREA_STYLE( '', ( #304 ) );
#270 = EDGE_CURVE( '', #305, #305, #306, .T. );
#271 = EDGE_CURVE( '', #307, #307, #308, .F. );
#272 = FILL_AREA_STYLE( '', ( #309 ) );
#273 = EDGE_CURVE( '', #310, #310, #311, .T. );
#274 = FILL_AREA_STYLE( '', ( #312 ) );
#275 = FILL_AREA_STYLE( '', ( #313 ) );
#276 = FILL_AREA_STYLE( '', ( #314 ) );
#277 = FILL_AREA_STYLE( '', ( #315 ) );
#278 = FILL_AREA_STYLE_COLOUR( '', #316 );
#279 = VERTEX_POINT( '', #317 );
#280 = CIRCLE( '', #318, 8.50000000000000 );
#281 = VERTEX_POINT( '', #319 );
#282 = VERTEX_POINT( '', #320 );
#283 = ELLIPSE( '', #321, 9.20033370250000, 8.50000000000000 );
#284 = CIRCLE( '', #322, 8.50000000000000 );
#285 = FILL_AREA_STYLE_COLOUR( '', #323 );
#286 = VERTEX_POINT( '', #324 );
#287 = CIRCLE( '', #325, 10.0000000000000 );
#288 = VERTEX_POINT( '', #326 );
#289 = CIRCLE( '', #327, 14.5000000000000 );
#290 = FILL_AREA_STYLE_COLOUR( '', #328 );
#291 = CIRCLE( '', #329, 8.50000000000000 );
#292 = FILL_AREA_STYLE_COLOUR( '', #330 );
#293 = VERTEX_POINT( '', #331 );
#294 = VERTEX_POINT( '', #332 );
#295 = CIRCLE( '', #333, 14.5000000000000 );
#296 = ELLIPSE( '', #334, 15.6946869042000, 14.5000000000000 );
#297 = FILL_AREA_STYLE_COLOUR( '', #335 );
#298 = VERTEX_POINT( '', #336 );
#299 = CIRCLE( '', #337, 14.5000000000000 );
#300 = CIRCLE( '', #338, 14.5000000000000 );
#301 = FILL_AREA_STYLE_COLOUR( '', #339 );
#302 = VERTEX_POINT( '', #340 );
#303 = CIRCLE( '', #341, 8.50000000000000 );
#304 = FILL_AREA_STYLE_COLOUR( '', #342 );
#305 = VERTEX_POINT( '', #343 );
#306 = CIRCLE( '', #344, 10.0000000000000 );
#307 = VERTEX_POINT( '', #345 );
#308 = CIRCLE( '', #346, 10.0000000000000 );
#309 = FILL_AREA_STYLE_COLOUR( '', #347 );
#310 = VERTEX_POINT( '', #348 );
#311 = CIRCLE( '', #349, 10.0000000000000 );
#312 = FILL_AREA_STYLE_COLOUR( '', #350 );
#313 = FILL_AREA_STYLE_COLOUR( '', #351 );
#314 = FILL_AREA_STYLE_COLOUR( '', #352 );
#315 = FILL_AREA_STYLE_COLOUR( '', #353 );
#316 = COLOUR_RGB( '', 0.689999997600000, 0.689999997600000, 0.689999997600000 );
#317 = CARTESIAN_POINT( '', ( 11.6672618895780, 0.000000000000000, 7.64644660940673 ) );
#318 = AXIS2_PLACEMENT_3D( '', #354, #355, #356 );
#319 = CARTESIAN_POINT( '', ( -8.30157801170450E-16, -8.50000000000000, 8.00000000000000 ) );
#320 = CARTESIAN_POINT( '', ( -2.07539450292612E-16, 8.50000000000000, 8.00000000000000 ) );
#321 = AXIS2_PLACEMENT_3D( '', #357, #358, #359 );
#322 = AXIS2_PLACEMENT_3D( '', #360, #361, #362 );
#323 = COLOUR_RGB( '', 0.689999997600000, 0.689999997600000, 0.689999997600000 );
#324 = CARTESIAN_POINT( '', ( 10.2530483272049, 0.000000000000000, 32.3951839509359 ) );
#325 = AXIS2_PLACEMENT_3D( '', #363, #364, #365 );
#326 = CARTESIAN_POINT( '', ( 27.5771644662754, 0.000000000000000, 15.0710678118655 ) );
#327 = AXIS2_PLACEMENT_3D( '', #366, #367, #368 );
#328 = COLOUR_RGB( '', 0.689999997600000, 0.689999997600000, 0.689999997600000 );
#329 = AXIS2_PLACEMENT_3D( '', #369, #370, #371 );
#330 = COLOUR_RGB( '', 0.689999997600000, 0.689999997600000, 0.689999997600000 );
#331 = CARTESIAN_POINT( '', ( -2.16840434497101E-16, 14.5000000000000, 8.00000000000000 ) );
#332 = CARTESIAN_POINT( '', ( -5.42101086242751E-17, -14.5000000000000, 8.00000000000000 ) );
#333 = AXIS2_PLACEMENT_3D( '', #372, #373, #374 );
#334 = AXIS2_PLACEMENT_3D( '', #375, #376, #377 );
#335 = COLOUR_RGB( '', 0.689999997600000, 0.689999997600000, 0.689999997600000 );
#336 = CARTESIAN_POINT( '', ( 14.5000000000000, 0.000000000000000, -16.5000000000000 ) );
#337 = AXIS2_PLACEMENT_3D( '', #378, #379, #380 );
#338 = AXIS2_PLACEMENT_3D( '', #381, #382, #383 );
#339 = COLOUR_RGB( '', 0.689999997600000, 0.689999997600000, 0.689999997600000 );
#340 = CARTESIAN_POINT( '', ( 8.50000000000000, 0.000000000000000, 0.000000000000000 ) );
#341 = AXIS2_PLACEMENT_3D( '', #384, #385, #386 );
#342 = COLOUR_RGB( '', 0.689999997600000, 0.689999997600000, 0.689999997600000 );
#343 = CARTESIAN_POINT( '', ( 10.0000000000000, 0.000000000000000, 0.000000000000000 ) );
#344 = AXIS2_PLACEMENT_3D( '', #387, #388, #389 );
#345 = CARTESIAN_POINT( '', ( 10.0000000000000, 0.000000000000000, -16.5000000000000 ) );
#346 = AXIS2_PLACEMENT_3D( '', #390, #391, #392 );
#347 = COLOUR_RGB( '', 0.689999997600000, 0.689999997600000, 0.689999997600000 );
#348 = CARTESIAN_POINT( '', ( 12.7279220613579, 0.000000000000000, 6.58578643762690 ) );
#349 = AXIS2_PLACEMENT_3D( '', #393, #394, #395 );
#350 = COLOUR_RGB( '', 0.689999997600000, 0.689999997600000, 0.689999997600000 );
#351 = COLOUR_RGB( '', 0.689999997600000, 0.689999997600000, 0.689999997600000 );
#352 = COLOUR_RGB( '', 0.689999997600000, 0.689999997600000, 0.689999997600000 );
#353 = COLOUR_RGB( '', 0.689999997600000, 0.689999997600000, 0.689999997600000 );
#354 = CARTESIAN_POINT( '', ( 5.65685424949238, 0.000000000000000, 13.6568542494924 ) );
#355 = DIRECTION( '', ( 0.707106781186548, -0.000000000000000, 0.707106781186547 ) );
#356 = DIRECTION( '', ( 0.707106781186547, 0.000000000000000, -0.707106781186548 ) );
#357 = CARTESIAN_POINT( '', ( 0.000000000000000, 0.000000000000000, 8.00000000000000 ) );
#358 = DIRECTION( '', ( 0.382683432365090, 0.000000000000000, 0.923879532511287 ) );
#359 = DIRECTION( '', ( -0.923879532511287, 0.000000000000000, 0.382683432365090 ) );
#360 = CARTESIAN_POINT( '', ( 1.30104260698261E-15, 0.000000000000000, 8.00000000000000 ) );
#361 = DIRECTION( '', ( 0.707106781186548, -0.000000000000000, 0.707106781186547 ) );
#362 = DIRECTION( '', ( 0.707106781186547, 0.000000000000000, -0.707106781186548 ) );
#363 = CARTESIAN_POINT( '', ( 17.3241161390704, 0.000000000000000, 25.3241161390704 ) );
#364 = DIRECTION( '', ( -0.707106781186548, 0.000000000000000, -0.707106781186548 ) );
#365 = DIRECTION( '', ( -0.707106781186547, 0.000000000000000, 0.707106781186548 ) );
#366 = CARTESIAN_POINT( '', ( 17.3241161390704, 0.000000000000000, 25.3241161390704 ) );
#367 = DIRECTION( '', ( 0.707106781186548, -0.000000000000000, 0.707106781186547 ) );
#368 = DIRECTION( '', ( 0.707106781186547, 0.000000000000000, -0.707106781186548 ) );
#369 = CARTESIAN_POINT( '', ( 0.000000000000000, 0.000000000000000, 8.00000000000000 ) );
#370 = DIRECTION( '', ( 0.000000000000000, -0.000000000000000, 1.00000000000000 ) );
#371 = DIRECTION( '', ( 1.00000000000000, 0.000000000000000, 0.000000000000000 ) );
#372 = CARTESIAN_POINT( '', ( -4.33680868994202E-16, 0.000000000000000, 8.00000000000000 ) );
#373 = DIRECTION( '', ( 0.707106781186548, -0.000000000000000, 0.707106781186547 ) );
#374 = DIRECTION( '', ( 0.707106781186547, 0.000000000000000, -0.707106781186548 ) );
#375 = CARTESIAN_POINT( '', ( 0.000000000000000, 0.000000000000000, 8.00000000000000 ) );
#376 = DIRECTION( '', ( -0.382683432365090, 0.000000000000000, -0.923879532511287 ) );
#377 = DIRECTION( '', ( 0.923879532511287, 0.000000000000000, -0.382683432365090 ) );
#378 = CARTESIAN_POINT( '', ( 0.000000000000000, 0.000000000000000, -16.5000000000000 ) );
#379 = DIRECTION( '', ( 0.000000000000000, 0.000000000000000, 1.00000000000000 ) );
#380 = DIRECTION( '', ( 1.00000000000000, 0.000000000000000, 0.000000000000000 ) );
#381 = CARTESIAN_POINT( '', ( 0.000000000000000, 0.000000000000000, 8.00000000000000 ) );
#382 = DIRECTION( '', ( 0.000000000000000, 0.000000000000000, 1.00000000000000 ) );
#383 = DIRECTION( '', ( 1.00000000000000, 0.000000000000000, 0.000000000000000 ) );
#384 = CARTESIAN_POINT( '', ( 0.000000000000000, 0.000000000000000, 0.000000000000000 ) );
#385 = DIRECTION( '', ( 0.000000000000000, -0.000000000000000, 1.00000000000000 ) );
#386 = DIRECTION( '', ( 1.00000000000000, 0.000000000000000, 0.000000000000000 ) );
#387 = CARTESIAN_POINT( '', ( 0.000000000000000, 0.000000000000000, 0.000000000000000 ) );
#388 = DIRECTION( '', ( 0.000000000000000, -0.000000000000000, 1.00000000000000 ) );
#389 = DIRECTION( '', ( 1.00000000000000, 0.000000000000000, 0.000000000000000 ) );
#390 = CARTESIAN_POINT( '', ( 0.000000000000000, 0.000000000000000, -16.5000000000000 ) );
#391 = DIRECTION( '', ( 0.000000000000000, 0.000000000000000, 1.00000000000000 ) );
#392 = DIRECTION( '', ( 1.00000000000000, 0.000000000000000, -0.000000000000000 ) );
#393 = CARTESIAN_POINT( '', ( 5.65685424949238, 0.000000000000000, 13.6568542494924 ) );
#394 = DIRECTION( '', ( 0.707106781186548, -0.000000000000000, 0.707106781186547 ) );
#395 = DIRECTION( '', ( 0.707106781186548, 0.000000000000000, -0.707106781186548 ) );
ENDSEC;
END-ISO-10303-21;
