ISO-10303-21;
HEADER;
/* Generated by software containing ST-Developer
 * from STEP Tools, Inc. (www.steptools.com) 
 */

FILE_DESCRIPTION(
/* description */ (''),
/* implementation_level */ '2;1');

FILE_NAME(
/* name */ 'C:\\Users\\mdebiase\\Desktop\\baricentro\\RIV032025020.ipt.
stp',
/* time_stamp */ '2014-05-27T15:24:46+02:00',
/* author */ ('bfaro'),
/* organization */ (''),
/* preprocessor_version */ 'ST-DEVELOPER v15.2',
/* originating_system */ 'Autodesk Inventor 2014',
/* authorisation */ '');

FILE_SCHEMA (('AUTOMOTIVE_DESIGN { 1 0 10303 214 3 1 1 }'));
ENDSEC;

DATA;
#10=SHAPE_REPRESENTATION_RELATIONSHIP('SRR','None',#209,#11);
#11=ADVANCED_BREP_SHAPE_REPRESENTATION($,(#113),#200);
#12=STYLED_ITEM($,(#217),#113);
#13=PLANE($,#130);
#14=PLANE($,#131);
#15=PLANE($,#132);
#16=CYLINDRICAL_SURFACE($,#118,9.99999999999998);
#17=CYLINDRICAL_SURFACE($,#121,12.5);
#18=CYLINDRICAL_SURFACE($,#123,13.5);
#19=CYLINDRICAL_SURFACE($,#128,16.);
#20=FACE_BOUND($,#39,.T.);
#21=FACE_BOUND($,#41,.T.);
#22=FACE_BOUND($,#43,.T.);
#23=FACE_BOUND($,#45,.T.);
#24=FACE_BOUND($,#47,.T.);
#25=FACE_BOUND($,#49,.T.);
#26=FACE_BOUND($,#50,.T.);
#27=FACE_BOUND($,#51,.T.);
#28=FACE_BOUND($,#53,.T.);
#29=FACE_BOUND($,#55,.T.);
#30=FACE_OUTER_BOUND($,#38,.T.);
#31=FACE_OUTER_BOUND($,#40,.T.);
#32=FACE_OUTER_BOUND($,#42,.T.);
#33=FACE_OUTER_BOUND($,#44,.T.);
#34=FACE_OUTER_BOUND($,#46,.T.);
#35=FACE_OUTER_BOUND($,#48,.T.);
#36=FACE_OUTER_BOUND($,#52,.T.);
#37=FACE_OUTER_BOUND($,#54,.T.);
#38=EDGE_LOOP($,(#83));
#39=EDGE_LOOP($,(#84));
#40=EDGE_LOOP($,(#85));
#41=EDGE_LOOP($,(#86));
#42=EDGE_LOOP($,(#87));
#43=EDGE_LOOP($,(#88));
#44=EDGE_LOOP($,(#89));
#45=EDGE_LOOP($,(#90));
#46=EDGE_LOOP($,(#91));
#47=EDGE_LOOP($,(#92));
#48=EDGE_LOOP($,(#93));
#49=EDGE_LOOP($,(#94));
#50=EDGE_LOOP($,(#95));
#51=EDGE_LOOP($,(#96));
#52=EDGE_LOOP($,(#97));
#53=EDGE_LOOP($,(#98));
#54=EDGE_LOOP($,(#99));
#55=EDGE_LOOP($,(#100));
#56=CIRCLE($,#116,9.5);
#57=CIRCLE($,#117,12.5);
#58=CIRCLE($,#119,10.);
#59=CIRCLE($,#120,10.);
#60=CIRCLE($,#122,12.5);
#61=CIRCLE($,#124,13.5);
#62=CIRCLE($,#125,13.5);
#63=CIRCLE($,#127,16.);
#64=CIRCLE($,#129,16.);
#65=VERTEX_POINT($,#173);
#66=VERTEX_POINT($,#175);
#67=VERTEX_POINT($,#178);
#68=VERTEX_POINT($,#180);
#69=VERTEX_POINT($,#183);
#70=VERTEX_POINT($,#186);
#71=VERTEX_POINT($,#188);
#72=VERTEX_POINT($,#191);
#73=VERTEX_POINT($,#194);
#74=EDGE_CURVE($,#65,#65,#56,.T.);
#75=EDGE_CURVE($,#66,#66,#57,.T.);
#76=EDGE_CURVE($,#67,#67,#58,.T.);
#77=EDGE_CURVE($,#68,#68,#59,.T.);
#78=EDGE_CURVE($,#69,#69,#60,.T.);
#79=EDGE_CURVE($,#70,#70,#61,.T.);
#80=EDGE_CURVE($,#71,#71,#62,.T.);
#81=EDGE_CURVE($,#72,#72,#63,.T.);
#82=EDGE_CURVE($,#73,#73,#64,.T.);
#83=ORIENTED_EDGE($,*,*,#74,.F.);
#84=ORIENTED_EDGE($,*,*,#75,.T.);
#85=ORIENTED_EDGE($,*,*,#76,.F.);
#86=ORIENTED_EDGE($,*,*,#77,.F.);
#87=ORIENTED_EDGE($,*,*,#75,.F.);
#88=ORIENTED_EDGE($,*,*,#78,.F.);
#89=ORIENTED_EDGE($,*,*,#79,.T.);
#90=ORIENTED_EDGE($,*,*,#80,.F.);
#91=ORIENTED_EDGE($,*,*,#81,.F.);
#92=ORIENTED_EDGE($,*,*,#80,.T.);
#93=ORIENTED_EDGE($,*,*,#81,.T.);
#94=ORIENTED_EDGE($,*,*,#82,.F.);
#95=ORIENTED_EDGE($,*,*,#74,.T.);
#96=ORIENTED_EDGE($,*,*,#76,.T.);
#97=ORIENTED_EDGE($,*,*,#82,.T.);
#98=ORIENTED_EDGE($,*,*,#78,.T.);
#99=ORIENTED_EDGE($,*,*,#79,.F.);
#100=ORIENTED_EDGE($,*,*,#77,.T.);
#101=TOROIDAL_SURFACE($,#115,45.2932489431509,36.);
#102=TOROIDAL_SURFACE($,#126,27.4999912776469,14.);
#103=ADVANCED_FACE($,(#30,#20),#101,.T.);
#104=ADVANCED_FACE($,(#31,#21),#16,.F.);
#105=ADVANCED_FACE($,(#32,#22),#17,.F.);
#106=ADVANCED_FACE($,(#33,#23),#18,.T.);
#107=ADVANCED_FACE($,(#34,#24),#102,.F.);
#108=ADVANCED_FACE($,(#35,#25),#19,.T.);
#109=ADVANCED_FACE($,(#26,#27),#13,.T.);
#110=ADVANCED_FACE($,(#36,#28),#14,.T.);
#111=ADVANCED_FACE($,(#37,#29),#15,.T.);
#112=CLOSED_SHELL($,(#103,#104,#105,#106,#107,#108,#109,#110,#111));
#113=MANIFOLD_SOLID_BREP('Solido1',#112);
#114=AXIS2_PLACEMENT_3D('placement',#171,#133,#134);
#115=AXIS2_PLACEMENT_3D($,#172,#135,#136);
#116=AXIS2_PLACEMENT_3D($,#174,#137,#138);
#117=AXIS2_PLACEMENT_3D($,#176,#139,#140);
#118=AXIS2_PLACEMENT_3D($,#177,#141,#142);
#119=AXIS2_PLACEMENT_3D($,#179,#143,#144);
#120=AXIS2_PLACEMENT_3D($,#181,#145,#146);
#121=AXIS2_PLACEMENT_3D($,#182,#147,#148);
#122=AXIS2_PLACEMENT_3D($,#184,#149,#150);
#123=AXIS2_PLACEMENT_3D($,#185,#151,#152);
#124=AXIS2_PLACEMENT_3D($,#187,#153,#154);
#125=AXIS2_PLACEMENT_3D($,#189,#155,#156);
#126=AXIS2_PLACEMENT_3D($,#190,#157,#158);
#127=AXIS2_PLACEMENT_3D($,#192,#159,#160);
#128=AXIS2_PLACEMENT_3D($,#193,#161,#162);
#129=AXIS2_PLACEMENT_3D($,#195,#163,#164);
#130=AXIS2_PLACEMENT_3D($,#196,#165,#166);
#131=AXIS2_PLACEMENT_3D($,#197,#167,#168);
#132=AXIS2_PLACEMENT_3D($,#198,#169,#170);
#133=DIRECTION('axis',(0.,0.,1.));
#134=DIRECTION('refdir',(1.,0.,0.));
#135=DIRECTION('center_axis',(-1.,1.5543593989178E-017,0.));
#136=DIRECTION('ref_axis',(0.,0.,-1.));
#137=DIRECTION('center_axis',(-1.,0.,0.));
#138=DIRECTION('ref_axis',(0.,0.,1.));
#139=DIRECTION('center_axis',(-1.,0.,0.));
#140=DIRECTION('ref_axis',(0.,-1.,0.));
#141=DIRECTION('center_axis',(-1.,0.,0.));
#142=DIRECTION('ref_axis',(0.,-1.,0.));
#143=DIRECTION('center_axis',(1.,0.,0.));
#144=DIRECTION('ref_axis',(0.,-1.,0.));
#145=DIRECTION('center_axis',(-1.,0.,0.));
#146=DIRECTION('ref_axis',(0.,-1.,0.));
#147=DIRECTION('center_axis',(1.,0.,0.));
#148=DIRECTION('ref_axis',(0.,-1.,0.));
#149=DIRECTION('center_axis',(1.,0.,0.));
#150=DIRECTION('ref_axis',(0.,-1.,0.));
#151=DIRECTION('center_axis',(-1.,0.,0.));
#152=DIRECTION('ref_axis',(0.,1.,0.));
#153=DIRECTION('center_axis',(-1.,0.,0.));
#154=DIRECTION('ref_axis',(0.,1.,0.));
#155=DIRECTION('center_axis',(-1.,0.,0.));
#156=DIRECTION('ref_axis',(0.,1.,0.));
#157=DIRECTION('center_axis',(-1.,-9.15503863991332E-015,-1.08560625455624E-015));
#158=DIRECTION('ref_axis',(-1.11289849473494E-015,0.,1.));
#159=DIRECTION('center_axis',(-1.,0.,0.));
#160=DIRECTION('ref_axis',(0.,1.,0.));
#161=DIRECTION('center_axis',(-1.,0.,0.));
#162=DIRECTION('ref_axis',(0.,1.,0.));
#163=DIRECTION('center_axis',(-1.,0.,0.));
#164=DIRECTION('ref_axis',(0.,1.,0.));
#165=DIRECTION('center_axis',(1.,0.,0.));
#166=DIRECTION('ref_axis',(0.,0.,-1.));
#167=DIRECTION('center_axis',(-1.,0.,0.));
#168=DIRECTION('ref_axis',(0.,0.,1.));
#169=DIRECTION('center_axis',(1.,0.,0.));
#170=DIRECTION('ref_axis',(0.,0.,-1.));
#171=CARTESIAN_POINT('',(0.,0.,0.));
#172=CARTESIAN_POINT('Origin',(11.879050028803,-1.34230084825049E-007,1.020345E-030));
#173=CARTESIAN_POINT('',(8.02634577157999,-1.34230084825049E-007,-9.5));
#174=CARTESIAN_POINT('Origin',(8.02634577157999,-1.34230084825049E-007,
1.537728E-030));
#175=CARTESIAN_POINT('',(-2.97365422842001,-1.34230084825049E-007,12.5));
#176=CARTESIAN_POINT('Origin',(-2.97365422842001,-1.34230084825049E-007,
1.020345E-030));
#177=CARTESIAN_POINT('Origin',(16.02634577158,-1.34230102588617E-007,1.537728E-030));
#178=CARTESIAN_POINT('',(8.02634577157999,9.99999986577002,-1.224606E-015));
#179=CARTESIAN_POINT('Origin',(8.02634577157999,-1.34230084825049E-007,
1.537728E-030));
#180=CARTESIAN_POINT('',(24.02634577158,9.99999986577002,-1.224606E-015));
#181=CARTESIAN_POINT('Origin',(24.02634577158,-1.34230084825049E-007,1.537728E-030));
#182=CARTESIAN_POINT('Origin',(-12.4736542284201,-1.3423006706148E-007,
1.020345E-030));
#183=CARTESIAN_POINT('',(-21.9736542284202,12.49999986577,1.530758E-015));
#184=CARTESIAN_POINT('Origin',(-21.9736542284202,-1.34230084825049E-007,
1.020345E-030));
#185=CARTESIAN_POINT('Origin',(16.02634577158,-1.34230084825049E-007,0.));
#186=CARTESIAN_POINT('',(24.02634577158,-13.5000001342301,1.653219E-015));
#187=CARTESIAN_POINT('Origin',(24.02634577158,-1.34230084825049E-007,0.));
#188=CARTESIAN_POINT('',(8.02634577157999,-1.34230084825049E-007,-13.5));
#189=CARTESIAN_POINT('Origin',(8.02634577157999,-1.34230084825049E-007,
0.));
#190=CARTESIAN_POINT('Origin',(8.01071804584472,-1.3422985389866E-007,9.36056787637085E-014));
#191=CARTESIAN_POINT('',(0.0263457715800008,-1.34230084825049E-007,-16.));
#192=CARTESIAN_POINT('Origin',(0.0263457715800008,-1.34230084825049E-007,
0.));
#193=CARTESIAN_POINT('Origin',(-10.97365422842,-1.34230084825049E-007,0.));
#194=CARTESIAN_POINT('',(-21.9736542284202,-16.0000001342301,1.95937E-015));
#195=CARTESIAN_POINT('Origin',(-21.9736542284202,-1.34230084825049E-007,
0.));
#196=CARTESIAN_POINT('Origin',(8.02634577157999,-10.00000013423,1.537728E-030));
#197=CARTESIAN_POINT('Origin',(-21.9736542284202,7.99999986577001,0.));
#198=CARTESIAN_POINT('Origin',(24.02634577158,6.74999986576992,0.));
#199=UNCERTAINTY_MEASURE_WITH_UNIT(LENGTH_MEASURE(0.01),#201,
'DISTANCE_ACCURACY_VALUE',
'Maximum model space distance between geometric entities at asserted c
onnectivities');
#200=(
GEOMETRIC_REPRESENTATION_CONTEXT(3)
GLOBAL_UNCERTAINTY_ASSIGNED_CONTEXT((#199))
GLOBAL_UNIT_ASSIGNED_CONTEXT((#201,#204,#202))
REPRESENTATION_CONTEXT('','3D')
);
#201=(
LENGTH_UNIT()
NAMED_UNIT(*)
SI_UNIT(.MILLI.,.METRE.)
);
#202=(
NAMED_UNIT(*)
SI_UNIT($,.STERADIAN.)
SOLID_ANGLE_UNIT()
);
#203=DIMENSIONAL_EXPONENTS(0.,0.,0.,0.,0.,0.,0.);
#204=(
CONVERSION_BASED_UNIT('degree',#206)
NAMED_UNIT(#203)
PLANE_ANGLE_UNIT()
);
#205=(
NAMED_UNIT(*)
PLANE_ANGLE_UNIT()
SI_UNIT($,.RADIAN.)
);
#206=PLANE_ANGLE_MEASURE_WITH_UNIT(PLANE_ANGLE_MEASURE(0.01745329252),#205);
#207=SHAPE_DEFINITION_REPRESENTATION(#208,#209);
#208=PRODUCT_DEFINITION_SHAPE('',$,#211);
#209=SHAPE_REPRESENTATION('',(#114),#200);
#210=PRODUCT_DEFINITION_CONTEXT('3D Mechanical Parts',#214,'design');
#211=PRODUCT_DEFINITION('RIV032025020','RIV032025020',#212,#210);
#212=PRODUCT_DEFINITION_FORMATION('',$,#216);
#213=APPLICATION_PROTOCOL_DEFINITION('international standard',
'automotive_design',2009,#214);
#214=APPLICATION_CONTEXT(
'Core Data for Automotive Mechanical Design Process');
#215=PRODUCT_CONTEXT('3D Mechanical Parts',#214,'mechanical');
#216=PRODUCT('RIV032025020','RIV032025020',$,(#215));
#217=PRESENTATION_STYLE_ASSIGNMENT((#218));
#218=SURFACE_STYLE_USAGE(.BOTH.,#219);
#219=SURFACE_SIDE_STYLE($,(#220));
#220=SURFACE_STYLE_FILL_AREA(#221);
#221=FILL_AREA_STYLE($,(#222));
#222=FILL_AREA_STYLE_COLOUR($,#223);
#223=COLOUR_RGB('',0.509803921568627,0.509803921568627,0.588235294117647);
ENDSEC;
END-ISO-10303-21;
