ISO-10303-21;
HEADER;
FILE_DESCRIPTION(('STEP AP214'),'1');
FILE_NAME('mim075.stp','2018-02-09T08:04:00',('TraceParts'),('TraceParts S.A.'),'Spatial InterOp 3D',' ',' ');
FILE_SCHEMA(('automotive_design'));
ENDSEC;
DATA;
#1=MECHANICAL_DESIGN_GEOMETRIC_PRESENTATION_REPRESENTATION(' ',(#10,#11,#12,#13,#14,#15,#16,#17,#18,#19,#20,#21,#22),#6);
#2=PRODUCT_DEFINITION_CONTEXT('',#23,'design');
#3=APPLICATION_PROTOCOL_DEFINITION('INTERNATIONAL STANDARD','automotive_design',1994,#23);
#4=PRODUCT_CATEGORY_RELATIONSHIP('NONE','NONE',#24,#25);
#5=SHAPE_DEFINITION_REPRESENTATION(#26,#27);
#6= (GEOMETRIC_REPRESENTATION_CONTEXT(3)GLOBAL_UNCERTAINTY_ASSIGNED_CONTEXT((#30))GLOBAL_UNIT_ASSIGNED_CONTEXT((#32,#33,#34))REPRESENTATION_CONTEXT('NONE','WORKSPACE'));
#10=STYLED_ITEM('',(#36),#37);
#11=STYLED_ITEM('',(#38),#39);
#12=STYLED_ITEM('',(#40),#41);
#13=STYLED_ITEM('',(#42),#43);
#14=STYLED_ITEM('',(#44),#45);
#15=STYLED_ITEM('',(#46),#47);
#16=STYLED_ITEM('',(#48),#49);
#17=STYLED_ITEM('',(#50),#51);
#18=STYLED_ITEM('',(#52),#53);
#19=STYLED_ITEM('',(#54),#55);
#20=STYLED_ITEM('',(#56),#57);
#21=STYLED_ITEM('',(#58),#59);
#22=STYLED_ITEM('',(#60),#61);
#23=APPLICATION_CONTEXT(' ');
#24=PRODUCT_CATEGORY('part','NONE');
#25=PRODUCT_RELATED_PRODUCT_CATEGORY('detail',' ',(#62));
#26=PRODUCT_DEFINITION_SHAPE('NONE','NONE',#63);
#27=ADVANCED_BREP_SHAPE_REPRESENTATION('mim075',(#61,#64),#6);
#30=UNCERTAINTY_MEASURE_WITH_UNIT(LENGTH_MEASURE(1.0E-006),#32,'','');
#32= (CONVERSION_BASED_UNIT('MILLIMETRE',#67)LENGTH_UNIT()NAMED_UNIT(#70));
#33= (NAMED_UNIT(#72)PLANE_ANGLE_UNIT()SI_UNIT($,.RADIAN.));
#34= (NAMED_UNIT(#72)SOLID_ANGLE_UNIT()SI_UNIT($,.STERADIAN.));
#36=PRESENTATION_STYLE_ASSIGNMENT((#78));
#37=ADVANCED_FACE('',(#79),#80,.T.);
#38=PRESENTATION_STYLE_ASSIGNMENT((#81));
#39=ADVANCED_FACE('',(#82),#83,.F.);
#40=PRESENTATION_STYLE_ASSIGNMENT((#84));
#41=ADVANCED_FACE('',(#85),#86,.F.);
#42=PRESENTATION_STYLE_ASSIGNMENT((#87));
#43=ADVANCED_FACE('',(#88),#89,.F.);
#44=PRESENTATION_STYLE_ASSIGNMENT((#90));
#45=ADVANCED_FACE('',(#91,#92),#93,.T.);
#46=PRESENTATION_STYLE_ASSIGNMENT((#94));
#47=ADVANCED_FACE('',(#95,#96),#97,.F.);
#48=PRESENTATION_STYLE_ASSIGNMENT((#98));
#49=ADVANCED_FACE('',(#99,#100),#101,.T.);
#50=PRESENTATION_STYLE_ASSIGNMENT((#102));
#51=ADVANCED_FACE('',(#103,#104),#105,.F.);
#52=PRESENTATION_STYLE_ASSIGNMENT((#106));
#53=ADVANCED_FACE('',(#107),#108,.F.);
#54=PRESENTATION_STYLE_ASSIGNMENT((#109));
#55=ADVANCED_FACE('',(#110),#111,.F.);
#56=PRESENTATION_STYLE_ASSIGNMENT((#112));
#57=ADVANCED_FACE('',(#113),#114,.F.);
#58=PRESENTATION_STYLE_ASSIGNMENT((#115));
#59=ADVANCED_FACE('',(#116),#117,.T.);
#60=PRESENTATION_STYLE_ASSIGNMENT((#118));
#61=MANIFOLD_SOLID_BREP('mim075',#119);
#62=PRODUCT('mim075','mim075','PART-mim075-DESC',(#120));
#63=PRODUCT_DEFINITION('NONE','NONE',#121,#2);
#64=AXIS2_PLACEMENT_3D('',#122,#123,#124);
#67=LENGTH_MEASURE_WITH_UNIT(LENGTH_MEASURE(1.0),#125);
#70=DIMENSIONAL_EXPONENTS(1.0,0.0,0.0,0.0,0.0,0.0,0.0);
#72=DIMENSIONAL_EXPONENTS(0.0,0.0,0.0,0.0,0.0,0.0,0.0);
#78=SURFACE_STYLE_USAGE(.BOTH.,#126);
#79=FACE_OUTER_BOUND('',#127,.T.);
#80=CYLINDRICAL_SURFACE('',#128,45.5);
#81=SURFACE_STYLE_USAGE(.BOTH.,#129);
#82=FACE_OUTER_BOUND('',#130,.T.);
#83=CYLINDRICAL_SURFACE('',#131,37.5);
#84=SURFACE_STYLE_USAGE(.BOTH.,#132);
#85=FACE_OUTER_BOUND('',#133,.T.);
#86=CYLINDRICAL_SURFACE('',#134,37.5);
#87=SURFACE_STYLE_USAGE(.BOTH.,#135);
#88=FACE_OUTER_BOUND('',#136,.T.);
#89=CYLINDRICAL_SURFACE('',#137,36.0);
#90=SURFACE_STYLE_USAGE(.BOTH.,#138);
#91=FACE_BOUND('',#139,.T.);
#92=FACE_OUTER_BOUND('',#140,.T.);
#93=PLANE('',#141);
#94=SURFACE_STYLE_USAGE(.BOTH.,#142);
#95=FACE_BOUND('',#143,.T.);
#96=FACE_OUTER_BOUND('',#144,.T.);
#97=PLANE('',#145);
#98=SURFACE_STYLE_USAGE(.BOTH.,#146);
#99=FACE_BOUND('',#147,.T.);
#100=FACE_OUTER_BOUND('',#148,.T.);
#101=PLANE('',#149);
#102=SURFACE_STYLE_USAGE(.BOTH.,#150);
#103=FACE_BOUND('',#151,.T.);
#104=FACE_OUTER_BOUND('',#152,.T.);
#105=PLANE('',#153);
#106=SURFACE_STYLE_USAGE(.BOTH.,#154);
#107=FACE_OUTER_BOUND('',#155,.T.);
#108=CYLINDRICAL_SURFACE('',#156,36.0);
#109=SURFACE_STYLE_USAGE(.BOTH.,#157);
#110=FACE_OUTER_BOUND('',#158,.T.);
#111=CYLINDRICAL_SURFACE('',#159,37.5);
#112=SURFACE_STYLE_USAGE(.BOTH.,#160);
#113=FACE_OUTER_BOUND('',#161,.T.);
#114=CYLINDRICAL_SURFACE('',#162,37.5);
#115=SURFACE_STYLE_USAGE(.BOTH.,#163);
#116=FACE_OUTER_BOUND('',#164,.T.);
#117=CYLINDRICAL_SURFACE('',#165,45.5);
#118=SURFACE_STYLE_USAGE(.BOTH.,#166);
#119=CLOSED_SHELL('',(#37,#39,#41,#43,#45,#47,#49,#51,#53,#55,#57,#59));
#120=PRODUCT_CONTEXT('',#23,'mechanical');
#121=PRODUCT_DEFINITION_FORMATION_WITH_SPECIFIED_SOURCE(' ','NONE',#62,.NOT_KNOWN.);
#122=CARTESIAN_POINT('',(0.0,0.0,0.0));
#123=DIRECTION('',(0.0,0.0,1.0));
#124=DIRECTION('',(1.0,0.0,0.0));
#125= (NAMED_UNIT(#70)LENGTH_UNIT()SI_UNIT(.MILLI.,.METRE.));
#126=SURFACE_SIDE_STYLE('',(#168));
#127=EDGE_LOOP('',(#169,#170,#171,#172));
#128=AXIS2_PLACEMENT_3D('',#173,#174,#175);
#129=SURFACE_SIDE_STYLE('',(#176));
#130=EDGE_LOOP('',(#177,#178,#179,#180));
#131=AXIS2_PLACEMENT_3D('',#181,#182,#183);
#132=SURFACE_SIDE_STYLE('',(#184));
#133=EDGE_LOOP('',(#185,#186,#187,#188));
#134=AXIS2_PLACEMENT_3D('',#189,#190,#191);
#135=SURFACE_SIDE_STYLE('',(#192));
#136=EDGE_LOOP('',(#193,#194,#195,#196));
#137=AXIS2_PLACEMENT_3D('',#197,#198,#199);
#138=SURFACE_SIDE_STYLE('',(#200));
#139=EDGE_LOOP('',(#201,#202));
#140=EDGE_LOOP('',(#203,#204));
#141=AXIS2_PLACEMENT_3D('',#205,#206,#207);
#142=SURFACE_SIDE_STYLE('',(#208));
#143=EDGE_LOOP('',(#209,#210));
#144=EDGE_LOOP('',(#211,#212));
#145=AXIS2_PLACEMENT_3D('',#213,#214,#215);
#146=SURFACE_SIDE_STYLE('',(#216));
#147=EDGE_LOOP('',(#217,#218));
#148=EDGE_LOOP('',(#219,#220));
#149=AXIS2_PLACEMENT_3D('',#221,#222,#223);
#150=SURFACE_SIDE_STYLE('',(#224));
#151=EDGE_LOOP('',(#225,#226));
#152=EDGE_LOOP('',(#227,#228));
#153=AXIS2_PLACEMENT_3D('',#229,#230,#231);
#154=SURFACE_SIDE_STYLE('',(#232));
#155=EDGE_LOOP('',(#233,#234,#235,#236));
#156=AXIS2_PLACEMENT_3D('',#237,#238,#239);
#157=SURFACE_SIDE_STYLE('',(#240));
#158=EDGE_LOOP('',(#241,#242,#243,#244));
#159=AXIS2_PLACEMENT_3D('',#245,#246,#247);
#160=SURFACE_SIDE_STYLE('',(#248));
#161=EDGE_LOOP('',(#249,#250,#251,#252));
#162=AXIS2_PLACEMENT_3D('',#253,#254,#255);
#163=SURFACE_SIDE_STYLE('',(#256));
#164=EDGE_LOOP('',(#257,#258,#259,#260));
#165=AXIS2_PLACEMENT_3D('',#261,#262,#263);
#166=SURFACE_SIDE_STYLE('',(#264));
#168=SURFACE_STYLE_FILL_AREA(#265);
#169=ORIENTED_EDGE('',*,*,#266,.F.);
#170=ORIENTED_EDGE('',*,*,#267,.T.);
#171=ORIENTED_EDGE('',*,*,#268,.F.);
#172=ORIENTED_EDGE('',*,*,#269,.T.);
#173=CARTESIAN_POINT('',(0.0,0.0,-31.0));
#174=DIRECTION('',(0.0,0.0,-1.0));
#175=DIRECTION('',(1.0,0.0,0.0));
#176=SURFACE_STYLE_FILL_AREA(#270);
#177=ORIENTED_EDGE('',*,*,#271,.F.);
#178=ORIENTED_EDGE('',*,*,#272,.T.);
#179=ORIENTED_EDGE('',*,*,#273,.F.);
#180=ORIENTED_EDGE('',*,*,#274,.T.);
#181=CARTESIAN_POINT('',(0.0,0.0,-31.0));
#182=DIRECTION('',(0.0,0.0,-1.0));
#183=DIRECTION('',(1.0,0.0,0.0));
#184=SURFACE_STYLE_FILL_AREA(#275);
#185=ORIENTED_EDGE('',*,*,#276,.F.);
#186=ORIENTED_EDGE('',*,*,#277,.T.);
#187=ORIENTED_EDGE('',*,*,#278,.F.);
#188=ORIENTED_EDGE('',*,*,#279,.T.);
#189=CARTESIAN_POINT('',(0.0,0.0,10.0));
#190=DIRECTION('',(0.0,0.0,-1.0));
#191=DIRECTION('',(1.0,0.0,0.0));
#192=SURFACE_STYLE_FILL_AREA(#280);
#193=ORIENTED_EDGE('',*,*,#281,.F.);
#194=ORIENTED_EDGE('',*,*,#282,.T.);
#195=ORIENTED_EDGE('',*,*,#283,.F.);
#196=ORIENTED_EDGE('',*,*,#284,.T.);
#197=CARTESIAN_POINT('',(0.0,0.0,10.0));
#198=DIRECTION('',(0.0,0.0,1.0));
#199=DIRECTION('',(-1.0,0.0,0.0));
#200=SURFACE_STYLE_FILL_AREA(#285);
#201=ORIENTED_EDGE('',*,*,#284,.F.);
#202=ORIENTED_EDGE('',*,*,#286,.F.);
#203=ORIENTED_EDGE('',*,*,#287,.F.);
#204=ORIENTED_EDGE('',*,*,#279,.F.);
#205=CARTESIAN_POINT('',(-1.96168598197822E-015,7.89491928622334E-016,7.00000000000002));
#206=DIRECTION('',(0.0,0.0,1.0));
#207=DIRECTION('',(1.0,-0.0,0.0));
#208=SURFACE_STYLE_FILL_AREA(#288);
#209=ORIENTED_EDGE('',*,*,#289,.F.);
#210=ORIENTED_EDGE('',*,*,#282,.F.);
#211=ORIENTED_EDGE('',*,*,#290,.F.);
#212=ORIENTED_EDGE('',*,*,#272,.F.);
#213=CARTESIAN_POINT('',(1.96168598197822E-015,7.89491928622334E-016,2.99999999999999));
#214=DIRECTION('',(0.0,0.0,1.0));
#215=DIRECTION('',(1.0,-0.0,0.0));
#216=SURFACE_STYLE_FILL_AREA(#291);
#217=ORIENTED_EDGE('',*,*,#277,.F.);
#218=ORIENTED_EDGE('',*,*,#292,.F.);
#219=ORIENTED_EDGE('',*,*,#293,.F.);
#220=ORIENTED_EDGE('',*,*,#269,.F.);
#221=CARTESIAN_POINT('',(-1.76570556658165E-015,6.50680160952473E-016,40.0));
#222=DIRECTION('',(0.0,0.0,1.0));
#223=DIRECTION('',(1.0,-0.0,0.0));
#224=SURFACE_STYLE_FILL_AREA(#294);
#225=ORIENTED_EDGE('',*,*,#274,.F.);
#226=ORIENTED_EDGE('',*,*,#295,.F.);
#227=ORIENTED_EDGE('',*,*,#296,.F.);
#228=ORIENTED_EDGE('',*,*,#267,.F.);
#229=CARTESIAN_POINT('',(1.76570556658165E-015,6.50680160952473E-016,-30.0));
#230=DIRECTION('',(0.0,0.0,1.0));
#231=DIRECTION('',(1.0,-0.0,0.0));
#232=SURFACE_STYLE_FILL_AREA(#297);
#233=ORIENTED_EDGE('',*,*,#281,.T.);
#234=ORIENTED_EDGE('',*,*,#286,.T.);
#235=ORIENTED_EDGE('',*,*,#283,.T.);
#236=ORIENTED_EDGE('',*,*,#289,.T.);
#237=CARTESIAN_POINT('',(0.0,0.0,10.0));
#238=DIRECTION('',(0.0,0.0,1.0));
#239=DIRECTION('',(-1.0,0.0,0.0));
#240=SURFACE_STYLE_FILL_AREA(#298);
#241=ORIENTED_EDGE('',*,*,#276,.T.);
#242=ORIENTED_EDGE('',*,*,#287,.T.);
#243=ORIENTED_EDGE('',*,*,#278,.T.);
#244=ORIENTED_EDGE('',*,*,#292,.T.);
#245=CARTESIAN_POINT('',(0.0,0.0,10.0));
#246=DIRECTION('',(0.0,0.0,-1.0));
#247=DIRECTION('',(1.0,0.0,0.0));
#248=SURFACE_STYLE_FILL_AREA(#299);
#249=ORIENTED_EDGE('',*,*,#271,.T.);
#250=ORIENTED_EDGE('',*,*,#295,.T.);
#251=ORIENTED_EDGE('',*,*,#273,.T.);
#252=ORIENTED_EDGE('',*,*,#290,.T.);
#253=CARTESIAN_POINT('',(0.0,0.0,-31.0));
#254=DIRECTION('',(0.0,0.0,-1.0));
#255=DIRECTION('',(1.0,0.0,0.0));
#256=SURFACE_STYLE_FILL_AREA(#300);
#257=ORIENTED_EDGE('',*,*,#266,.T.);
#258=ORIENTED_EDGE('',*,*,#293,.T.);
#259=ORIENTED_EDGE('',*,*,#268,.T.);
#260=ORIENTED_EDGE('',*,*,#296,.T.);
#261=CARTESIAN_POINT('',(0.0,0.0,-31.0));
#262=DIRECTION('',(0.0,0.0,-1.0));
#263=DIRECTION('',(1.0,0.0,0.0));
#264=SURFACE_STYLE_FILL_AREA(#301);
#265=FILL_AREA_STYLE('',(#302));
#266=EDGE_CURVE('',#303,#304,#305,.T.);
#267=EDGE_CURVE('',#303,#306,#307,.T.);
#268=EDGE_CURVE('',#308,#306,#309,.T.);
#269=EDGE_CURVE('',#308,#304,#310,.T.);
#270=FILL_AREA_STYLE('',(#311));
#271=EDGE_CURVE('',#312,#313,#314,.T.);
#272=EDGE_CURVE('',#312,#315,#316,.T.);
#273=EDGE_CURVE('',#317,#315,#318,.T.);
#274=EDGE_CURVE('',#317,#313,#319,.T.);
#275=FILL_AREA_STYLE('',(#320));
#276=EDGE_CURVE('',#321,#322,#323,.T.);
#277=EDGE_CURVE('',#321,#324,#325,.T.);
#278=EDGE_CURVE('',#326,#324,#327,.T.);
#279=EDGE_CURVE('',#326,#322,#328,.T.);
#280=FILL_AREA_STYLE('',(#329));
#281=EDGE_CURVE('',#330,#331,#332,.T.);
#282=EDGE_CURVE('',#330,#333,#334,.T.);
#283=EDGE_CURVE('',#335,#333,#336,.T.);
#284=EDGE_CURVE('',#335,#331,#337,.T.);
#285=FILL_AREA_STYLE('',(#338));
#286=EDGE_CURVE('',#331,#335,#339,.T.);
#287=EDGE_CURVE('',#322,#326,#340,.T.);
#288=FILL_AREA_STYLE('',(#341));
#289=EDGE_CURVE('',#333,#330,#342,.T.);
#290=EDGE_CURVE('',#315,#312,#343,.T.);
#291=FILL_AREA_STYLE('',(#344));
#292=EDGE_CURVE('',#324,#321,#345,.T.);
#293=EDGE_CURVE('',#304,#308,#346,.T.);
#294=FILL_AREA_STYLE('',(#347));
#295=EDGE_CURVE('',#313,#317,#348,.T.);
#296=EDGE_CURVE('',#306,#303,#349,.T.);
#297=FILL_AREA_STYLE('',(#350));
#298=FILL_AREA_STYLE('',(#351));
#299=FILL_AREA_STYLE('',(#352));
#300=FILL_AREA_STYLE('',(#353));
#301=FILL_AREA_STYLE('',(#354));
#302=FILL_AREA_STYLE_COLOUR('',#355);
#303=VERTEX_POINT('',#356);
#304=VERTEX_POINT('',#357);
#305=LINE('',#358,#359);
#306=VERTEX_POINT('',#360);
#307=CIRCLE('',#361,45.5);
#308=VERTEX_POINT('',#362);
#309=LINE('',#363,#364);
#310=CIRCLE('',#365,45.5);
#311=FILL_AREA_STYLE_COLOUR('',#366);
#312=VERTEX_POINT('',#367);
#313=VERTEX_POINT('',#368);
#314=LINE('',#369,#370);
#315=VERTEX_POINT('',#371);
#316=CIRCLE('',#372,37.5);
#317=VERTEX_POINT('',#373);
#318=LINE('',#374,#375);
#319=CIRCLE('',#376,37.5);
#320=FILL_AREA_STYLE_COLOUR('',#377);
#321=VERTEX_POINT('',#378);
#322=VERTEX_POINT('',#379);
#323=LINE('',#380,#381);
#324=VERTEX_POINT('',#382);
#325=CIRCLE('',#383,37.5);
#326=VERTEX_POINT('',#384);
#327=LINE('',#385,#386);
#328=CIRCLE('',#387,37.5);
#329=FILL_AREA_STYLE_COLOUR('',#388);
#330=VERTEX_POINT('',#389);
#331=VERTEX_POINT('',#390);
#332=LINE('',#391,#392);
#333=VERTEX_POINT('',#393);
#334=CIRCLE('',#394,36.0);
#335=VERTEX_POINT('',#395);
#336=LINE('',#396,#397);
#337=CIRCLE('',#398,36.0);
#338=FILL_AREA_STYLE_COLOUR('',#399);
#339=CIRCLE('',#400,36.0);
#340=CIRCLE('',#401,37.5);
#341=FILL_AREA_STYLE_COLOUR('',#402);
#342=CIRCLE('',#403,36.0);
#343=CIRCLE('',#404,37.5);
#344=FILL_AREA_STYLE_COLOUR('',#405);
#345=CIRCLE('',#406,37.5);
#346=CIRCLE('',#407,45.5);
#347=FILL_AREA_STYLE_COLOUR('',#408);
#348=CIRCLE('',#409,37.5);
#349=CIRCLE('',#410,45.5);
#350=FILL_AREA_STYLE_COLOUR('',#411);
#351=FILL_AREA_STYLE_COLOUR('',#412);
#352=FILL_AREA_STYLE_COLOUR('',#413);
#353=FILL_AREA_STYLE_COLOUR('',#414);
#354=FILL_AREA_STYLE_COLOUR('',#415);
#355=COLOUR_RGB('',0.905882358551025,0.839215695858002,0.674509823322296);
#356=CARTESIAN_POINT('',(45.5,5.57195890989182E-015,-30.0));
#357=CARTESIAN_POINT('',(45.5,5.57214293612046E-015,40.0));
#358=CARTESIAN_POINT('',(45.5,5.57195890989182E-015,5.0));
#359=VECTOR('',#416,1.0);
#360=CARTESIAN_POINT('',(-45.5,5.57214293612046E-015,-30.0));
#361=AXIS2_PLACEMENT_3D('',#417,#418,#419);
#362=CARTESIAN_POINT('',(-45.5,-5.57195890989182E-015,40.0));
#363=CARTESIAN_POINT('',(-45.5,-5.57195890989182E-015,5.0));
#364=VECTOR('',#420,1.0);
#365=AXIS2_PLACEMENT_3D('',#421,#422,#423);
#366=COLOUR_RGB('',0.905882358551025,0.839215695858002,0.674509823322296);
#367=CARTESIAN_POINT('',(37.5,4.59227382683391E-015,3.0));
#368=CARTESIAN_POINT('',(37.5,4.59227382683391E-015,-30.0));
#369=CARTESIAN_POINT('',(37.5,4.59227382683391E-015,-13.5));
#370=VECTOR('',#424,1.0);
#371=CARTESIAN_POINT('',(-37.5,4.59242549680258E-015,3.0));
#372=AXIS2_PLACEMENT_3D('',#425,#426,#427);
#373=CARTESIAN_POINT('',(-37.5,4.59242549680258E-015,-30.0));
#374=CARTESIAN_POINT('',(-37.5,-4.59227382683391E-015,-13.5));
#375=VECTOR('',#428,1.0);
#376=AXIS2_PLACEMENT_3D('',#429,#430,#431);
#377=COLOUR_RGB('',0.905882358551025,0.839215695858002,0.674509823322296);
#378=CARTESIAN_POINT('',(37.5,4.59242549680258E-015,40.0));
#379=CARTESIAN_POINT('',(37.5,4.59242549680258E-015,7.00000000000001));
#380=CARTESIAN_POINT('',(37.5,4.59227382683391E-015,10.0));
#381=VECTOR('',#432,1.0);
#382=CARTESIAN_POINT('',(-37.5,-4.59227382683391E-015,40.0));
#383=AXIS2_PLACEMENT_3D('',#433,#434,#435);
#384=CARTESIAN_POINT('',(-37.5,-4.59227382683391E-015,7.00000000000001));
#385=CARTESIAN_POINT('',(-37.5,-4.59227382683391E-015,10.0));
#386=VECTOR('',#436,1.0);
#387=AXIS2_PLACEMENT_3D('',#437,#438,#439);
#388=COLOUR_RGB('',0.905882358551025,0.839215695858002,0.674509823322296);
#389=CARTESIAN_POINT('',(-36.0,4.40858287376056E-015,2.99999999999999));
#390=CARTESIAN_POINT('',(-36.0,4.40858287376056E-015,7.00000000000002));
#391=CARTESIAN_POINT('',(-36.0,4.40858287376056E-015,5.00000000000001));
#392=VECTOR('',#440,1.0);
#393=CARTESIAN_POINT('',(36.0,-4.40872847693047E-015,2.99999999999999));
#394=AXIS2_PLACEMENT_3D('',#441,#442,#443);
#395=CARTESIAN_POINT('',(36.0,4.40872847693047E-015,7.00000000000002));
#396=CARTESIAN_POINT('',(36.0,-4.40858287376056E-015,5.00000000000001));
#397=VECTOR('',#444,1.0);
#398=AXIS2_PLACEMENT_3D('',#445,#446,#447);
#399=COLOUR_RGB('',0.905882358551025,0.839215695858002,0.674509823322296);
#400=AXIS2_PLACEMENT_3D('',#448,#449,#450);
#401=AXIS2_PLACEMENT_3D('',#451,#452,#453);
#402=COLOUR_RGB('',0.905882358551025,0.839215695858002,0.674509823322296);
#403=AXIS2_PLACEMENT_3D('',#454,#455,#456);
#404=AXIS2_PLACEMENT_3D('',#457,#458,#459);
#405=COLOUR_RGB('',0.905882358551025,0.839215695858002,0.674509823322296);
#406=AXIS2_PLACEMENT_3D('',#460,#461,#462);
#407=AXIS2_PLACEMENT_3D('',#463,#464,#465);
#408=COLOUR_RGB('',0.905882358551025,0.839215695858002,0.674509823322296);
#409=AXIS2_PLACEMENT_3D('',#466,#467,#468);
#410=AXIS2_PLACEMENT_3D('',#469,#470,#471);
#411=COLOUR_RGB('',0.905882358551025,0.839215695858002,0.674509823322296);
#412=COLOUR_RGB('',0.905882358551025,0.839215695858002,0.674509823322296);
#413=COLOUR_RGB('',0.905882358551025,0.839215695858002,0.674509823322296);
#414=COLOUR_RGB('',0.905882358551025,0.839215695858002,0.674509823322296);
#415=COLOUR_RGB('',0.905882358551025,0.839215695858002,0.674509823322296);
#416=DIRECTION('',(-0.0,-0.0,1.0));
#417=CARTESIAN_POINT('',(0.0,0.0,-30.0));
#418=DIRECTION('',(0.0,0.0,1.0));
#419=DIRECTION('',(1.0,0.0,0.0));
#420=DIRECTION('',(0.0,0.0,-1.0));
#421=CARTESIAN_POINT('',(0.0,0.0,40.0));
#422=DIRECTION('',(0.0,0.0,-1.0));
#423=DIRECTION('',(1.0,0.0,0.0));
#424=DIRECTION('',(-0.0,-0.0,-1.0));
#425=CARTESIAN_POINT('',(0.0,0.0,3.0));
#426=DIRECTION('',(0.0,0.0,1.0));
#427=DIRECTION('',(1.0,0.0,0.0));
#428=DIRECTION('',(-0.0,-0.0,1.0));
#429=CARTESIAN_POINT('',(0.0,0.0,-30.0));
#430=DIRECTION('',(0.0,0.0,-1.0));
#431=DIRECTION('',(1.0,0.0,0.0));
#432=DIRECTION('',(-0.0,-0.0,-1.0));
#433=CARTESIAN_POINT('',(0.0,0.0,40.0));
#434=DIRECTION('',(0.0,0.0,1.0));
#435=DIRECTION('',(1.0,0.0,0.0));
#436=DIRECTION('',(-0.0,-0.0,1.0));
#437=CARTESIAN_POINT('',(0.0,0.0,7.00000000000001));
#438=DIRECTION('',(0.0,0.0,-1.0));
#439=DIRECTION('',(-1.0,0.0,0.0));
#440=DIRECTION('',(0.0,-0.0,1.0));
#441=CARTESIAN_POINT('',(0.0,0.0,2.99999999999999));
#442=DIRECTION('',(0.0,0.0,-1.0));
#443=DIRECTION('',(-1.0,0.0,0.0));
#444=DIRECTION('',(0.0,0.0,-1.0));
#445=CARTESIAN_POINT('',(0.0,0.0,7.00000000000002));
#446=DIRECTION('',(0.0,0.0,1.0));
#447=DIRECTION('',(-1.0,0.0,0.0));
#448=CARTESIAN_POINT('',(0.0,0.0,7.00000000000002));
#449=DIRECTION('',(0.0,0.0,1.0));
#450=DIRECTION('',(-1.0,0.0,0.0));
#451=CARTESIAN_POINT('',(0.0,0.0,7.00000000000001));
#452=DIRECTION('',(0.0,0.0,-1.0));
#453=DIRECTION('',(-1.0,0.0,0.0));
#454=CARTESIAN_POINT('',(0.0,0.0,2.99999999999999));
#455=DIRECTION('',(0.0,0.0,-1.0));
#456=DIRECTION('',(-1.0,0.0,0.0));
#457=CARTESIAN_POINT('',(0.0,0.0,3.0));
#458=DIRECTION('',(0.0,0.0,1.0));
#459=DIRECTION('',(1.0,0.0,0.0));
#460=CARTESIAN_POINT('',(0.0,0.0,40.0));
#461=DIRECTION('',(0.0,0.0,1.0));
#462=DIRECTION('',(1.0,0.0,0.0));
#463=CARTESIAN_POINT('',(0.0,0.0,40.0));
#464=DIRECTION('',(0.0,0.0,-1.0));
#465=DIRECTION('',(1.0,0.0,0.0));
#466=CARTESIAN_POINT('',(0.0,0.0,-30.0));
#467=DIRECTION('',(0.0,0.0,-1.0));
#468=DIRECTION('',(1.0,0.0,0.0));
#469=CARTESIAN_POINT('',(0.0,0.0,-30.0));
#470=DIRECTION('',(0.0,0.0,1.0));
#471=DIRECTION('',(1.0,0.0,0.0));
ENDSEC;
END-ISO-10303-21;
