ISO-10303-21;
HEADER;
FILE_DESCRIPTION( ( 'STEP AP214' ), '1' );
FILE_NAME( 'p:/temp/worker_18/temp/exporttempdir_8_304_qPdTc/format_0/70066011007(architecture400).stp', '2021-11-25T10:27:44', ( 'License CC BY-ND 4.0' ), ( 'CADENAS' ), ' ', 'PARTsolutions', ' ' );
FILE_SCHEMA( ( 'AUTOMOTIVE_DESIGN { 1 0 10303 214 1 1 1 1 }' ) );
ENDSEC;
DATA;
#1 = MECHANICAL_DESIGN_GEOMETRIC_PRESENTATION_REPRESENTATION( ' ', ( #10, #11, #12, #13, #14, #15, #16, #17, #18, #19, #20, #21, #22 ), #6 );
#2 = PRODUCT_DEFINITION_CONTEXT( '', #23, 'design' );
#3 = APPLICATION_PROTOCOL_DEFINITION( 'international standard', 'automotive_design', 2001, #23 );
#4 = PRODUCT_CATEGORY_RELATIONSHIP( 'NONE', 'NONE', #24, #25 );
#5 = SHAPE_DEFINITION_REPRESENTATION( #26, #27 );
#6 =  ( GEOMETRIC_REPRESENTATION_CONTEXT( 3 )GLOBAL_UNCERTAINTY_ASSIGNED_CONTEXT( ( #30 ) )GLOBAL_UNIT_ASSIGNED_CONTEXT( ( #32, #33, #34 ) )REPRESENTATION_CONTEXT( 'NONE', 'WORKSPACE' ) );
#10 = STYLED_ITEM( '', ( #36 ), #37 );
#11 = STYLED_ITEM( '', ( #38 ), #39 );
#12 = STYLED_ITEM( '', ( #40 ), #41 );
#13 = STYLED_ITEM( '', ( #42 ), #43 );
#14 = STYLED_ITEM( '', ( #44 ), #45 );
#15 = STYLED_ITEM( '', ( #46 ), #47 );
#16 = STYLED_ITEM( '', ( #48 ), #49 );
#17 = STYLED_ITEM( '', ( #50 ), #51 );
#18 = STYLED_ITEM( '', ( #52 ), #53 );
#19 = STYLED_ITEM( '', ( #54 ), #55 );
#20 = STYLED_ITEM( '', ( #56 ), #57 );
#21 = STYLED_ITEM( '', ( #58 ), #59 );
#22 = STYLED_ITEM( '', ( #60 ), #61 );
#23 = APPLICATION_CONTEXT( 'core data for automotive mechanical design processes' );
#24 = PRODUCT_CATEGORY( 'part', 'NONE' );
#25 = PRODUCT_RELATED_PRODUCT_CATEGORY( 'detail', ' ', ( #62 ) );
#26 = PRODUCT_DEFINITION_SHAPE( 'NONE', 'NONE', #63 );
#27 = ADVANCED_BREP_SHAPE_REPRESENTATION( '_70066011007(architecture400)', ( #64, #65 ), #6 );
#30 = UNCERTAINTY_MEASURE_WITH_UNIT( LENGTH_MEASURE( 0.00100000000000000 ), #32, '', '' );
#32 =  ( CONVERSION_BASED_UNIT( 'MILLIMETRE', #68 )LENGTH_UNIT(  )NAMED_UNIT( #71 ) );
#33 =  ( NAMED_UNIT( #73 )PLANE_ANGLE_UNIT(  )SI_UNIT( $, .RADIAN. ) );
#34 =  ( NAMED_UNIT( #73 )SI_UNIT( $, .STERADIAN. )SOLID_ANGLE_UNIT(  ) );
#36 = PRESENTATION_STYLE_ASSIGNMENT( ( #79 ) );
#37 = ADVANCED_FACE( '', ( #80, #81 ), #82, .T. );
#38 = PRESENTATION_STYLE_ASSIGNMENT( ( #83 ) );
#39 = ADVANCED_FACE( '', ( #84, #85 ), #86, .T. );
#40 = PRESENTATION_STYLE_ASSIGNMENT( ( #87 ) );
#41 = ADVANCED_FACE( '', ( #88, #89, #90 ), #91, .F. );
#42 = PRESENTATION_STYLE_ASSIGNMENT( ( #92 ) );
#43 = ADVANCED_FACE( '', ( #93, #94 ), #95, .T. );
#44 = PRESENTATION_STYLE_ASSIGNMENT( ( #96 ) );
#45 = ADVANCED_FACE( '', ( #97, #98 ), #99, .T. );
#46 = PRESENTATION_STYLE_ASSIGNMENT( ( #100 ) );
#47 = ADVANCED_FACE( '', ( #101, #102 ), #103, .T. );
#48 = PRESENTATION_STYLE_ASSIGNMENT( ( #104 ) );
#49 = ADVANCED_FACE( '', ( #105, #106 ), #107, .T. );
#50 = PRESENTATION_STYLE_ASSIGNMENT( ( #108 ) );
#51 = ADVANCED_FACE( '', ( #109, #110 ), #111, .F. );
#52 = PRESENTATION_STYLE_ASSIGNMENT( ( #112 ) );
#53 = ADVANCED_FACE( '', ( #113, #114, #115 ), #116, .T. );
#54 = PRESENTATION_STYLE_ASSIGNMENT( ( #117 ) );
#55 = ADVANCED_FACE( '', ( #118, #119 ), #120, .F. );
#56 = PRESENTATION_STYLE_ASSIGNMENT( ( #121 ) );
#57 = ADVANCED_FACE( '', ( #122, #123 ), #124, .F. );
#58 = PRESENTATION_STYLE_ASSIGNMENT( ( #125 ) );
#59 = ADVANCED_FACE( '', ( #126, #127 ), #128, .F. );
#60 = PRESENTATION_STYLE_ASSIGNMENT( ( #129 ) );
#61 = ADVANCED_FACE( '', ( #130, #131 ), #132, .T. );
#62 = PRODUCT( '_70066011007(architecture400)', '_70066011007(architecture400)', 'PART-_70066011007(architecture400)-DESC', ( #133 ) );
#63 = PRODUCT_DEFINITION( 'NONE', 'NONE', #134, #2 );
#64 = MANIFOLD_SOLID_BREP( '_70066011007(architecture400)', #135 );
#65 = AXIS2_PLACEMENT_3D( '', #136, #137, #138 );
#68 = LENGTH_MEASURE_WITH_UNIT( LENGTH_MEASURE( 1.00000000000000 ), #139 );
#71 = DIMENSIONAL_EXPONENTS( 1.00000000000000, 0.000000000000000, 0.000000000000000, 0.000000000000000, 0.000000000000000, 0.000000000000000, 0.000000000000000 );
#73 = DIMENSIONAL_EXPONENTS( 0.000000000000000, 0.000000000000000, 0.000000000000000, 0.000000000000000, 0.000000000000000, 0.000000000000000, 0.000000000000000 );
#79 = SURFACE_STYLE_USAGE( .BOTH., #140 );
#80 = FACE_OUTER_BOUND( '', #141, .T. );
#81 = FACE_BOUND( '', #142, .T. );
#82 = CONICAL_SURFACE( '', #143, 55.0000000000000, 0.785398163400000 );
#83 = SURFACE_STYLE_USAGE( .BOTH., #144 );
#84 = FACE_OUTER_BOUND( '', #145, .T. );
#85 = FACE_OUTER_BOUND( '', #146, .T. );
#86 = CYLINDRICAL_SURFACE( '', #147, 55.0000000000000 );
#87 = SURFACE_STYLE_USAGE( .BOTH., #148 );
#88 = FACE_OUTER_BOUND( '', #149, .T. );
#89 = FACE_OUTER_BOUND( '', #150, .T. );
#90 = FACE_BOUND( '', #151, .T. );
#91 = CYLINDRICAL_SURFACE( '', #152, 39.9000000000000 );
#92 = SURFACE_STYLE_USAGE( .BOTH., #153 );
#93 = FACE_OUTER_BOUND( '', #154, .T. );
#94 = FACE_OUTER_BOUND( '', #155, .T. );
#95 = CYLINDRICAL_SURFACE( '', #156, 62.5500000000000 );
#96 = SURFACE_STYLE_USAGE( .BOTH., #157 );
#97 = FACE_OUTER_BOUND( '', #158, .T. );
#98 = FACE_OUTER_BOUND( '', #159, .T. );
#99 = CYLINDRICAL_SURFACE( '', #160, 55.0000000000000 );
#100 = SURFACE_STYLE_USAGE( .BOTH., #161 );
#101 = FACE_OUTER_BOUND( '', #162, .T. );
#102 = FACE_BOUND( '', #163, .T. );
#103 = CONICAL_SURFACE( '', #164, 55.0000000000000, 0.785398163400000 );
#104 = SURFACE_STYLE_USAGE( .BOTH., #165 );
#105 = FACE_BOUND( '', #166, .T. );
#106 = FACE_OUTER_BOUND( '', #167, .T. );
#107 = CONICAL_SURFACE( '', #168, 62.5500000000000, 0.785398163400000 );
#108 = SURFACE_STYLE_USAGE( .BOTH., #169 );
#109 = FACE_OUTER_BOUND( '', #170, .T. );
#110 = FACE_BOUND( '', #171, .T. );
#111 = PLANE( '', #172 );
#112 = SURFACE_STYLE_USAGE( .BOTH., #173 );
#113 = FACE_OUTER_BOUND( '', #174, .T. );
#114 = FACE_BOUND( '', #175, .T. );
#115 = FACE_OUTER_BOUND( '', #176, .T. );
#116 = CYLINDRICAL_SURFACE( '', #177, 62.5500000000000 );
#117 = SURFACE_STYLE_USAGE( .BOTH., #178 );
#118 = FACE_OUTER_BOUND( '', #179, .T. );
#119 = FACE_OUTER_BOUND( '', #180, .T. );
#120 = CYLINDRICAL_SURFACE( '', #181, 39.9000000000000 );
#121 = SURFACE_STYLE_USAGE( .BOTH., #182 );
#122 = FACE_OUTER_BOUND( '', #183, .T. );
#123 = FACE_BOUND( '', #184, .T. );
#124 = PLANE( '', #185 );
#125 = SURFACE_STYLE_USAGE( .BOTH., #186 );
#126 = FACE_BOUND( '', #187, .T. );
#127 = FACE_OUTER_BOUND( '', #188, .T. );
#128 = PLANE( '', #189 );
#129 = SURFACE_STYLE_USAGE( .BOTH., #190 );
#130 = FACE_OUTER_BOUND( '', #191, .T. );
#131 = FACE_OUTER_BOUND( '', #192, .T. );
#132 = CYLINDRICAL_SURFACE( '', #193, 55.0000000000000 );
#133 = PRODUCT_CONTEXT( '', #23, 'mechanical' );
#134 = PRODUCT_DEFINITION_FORMATION_WITH_SPECIFIED_SOURCE( ' ', 'NONE', #62, .NOT_KNOWN. );
#135 = CLOSED_SHELL( '', ( #41, #53, #43, #37, #61, #57, #59, #45, #49, #47, #39, #51, #55 ) );
#136 = CARTESIAN_POINT( '', ( 0.000000000000000, 0.000000000000000, 0.000000000000000 ) );
#137 = DIRECTION( '', ( 0.000000000000000, 0.000000000000000, 1.00000000000000 ) );
#138 = DIRECTION( '', ( 1.00000000000000, 0.000000000000000, 0.000000000000000 ) );
#139 =  ( LENGTH_UNIT(  )NAMED_UNIT( #71 )SI_UNIT( .MILLI., .METRE. ) );
#140 = SURFACE_SIDE_STYLE( '', ( #195 ) );
#141 = EDGE_LOOP( '', ( #196 ) );
#142 = EDGE_LOOP( '', ( #197 ) );
#143 = AXIS2_PLACEMENT_3D( '', #198, #199, #200 );
#144 = SURFACE_SIDE_STYLE( '', ( #201 ) );
#145 = EDGE_LOOP( '', ( #202 ) );
#146 = EDGE_LOOP( '', ( #203 ) );
#147 = AXIS2_PLACEMENT_3D( '', #204, #205, #206 );
#148 = SURFACE_SIDE_STYLE( '', ( #207 ) );
#149 = EDGE_LOOP( '', ( #208 ) );
#150 = EDGE_LOOP( '', ( #209 ) );
#151 = EDGE_LOOP( '', ( #210, #211 ) );
#152 = AXIS2_PLACEMENT_3D( '', #212, #213, #214 );
#153 = SURFACE_SIDE_STYLE( '', ( #215 ) );
#154 = EDGE_LOOP( '', ( #216, #217 ) );
#155 = EDGE_LOOP( '', ( #218 ) );
#156 = AXIS2_PLACEMENT_3D( '', #219, #220, #221 );
#157 = SURFACE_SIDE_STYLE( '', ( #222 ) );
#158 = EDGE_LOOP( '', ( #223 ) );
#159 = EDGE_LOOP( '', ( #224 ) );
#160 = AXIS2_PLACEMENT_3D( '', #225, #226, #227 );
#161 = SURFACE_SIDE_STYLE( '', ( #228 ) );
#162 = EDGE_LOOP( '', ( #229 ) );
#163 = EDGE_LOOP( '', ( #230 ) );
#164 = AXIS2_PLACEMENT_3D( '', #231, #232, #233 );
#165 = SURFACE_SIDE_STYLE( '', ( #234 ) );
#166 = EDGE_LOOP( '', ( #235 ) );
#167 = EDGE_LOOP( '', ( #236 ) );
#168 = AXIS2_PLACEMENT_3D( '', #237, #238, #239 );
#169 = SURFACE_SIDE_STYLE( '', ( #240 ) );
#170 = EDGE_LOOP( '', ( #241 ) );
#171 = EDGE_LOOP( '', ( #242 ) );
#172 = AXIS2_PLACEMENT_3D( '', #243, #244, #245 );
#173 = SURFACE_SIDE_STYLE( '', ( #246 ) );
#174 = EDGE_LOOP( '', ( #247 ) );
#175 = EDGE_LOOP( '', ( #248, #249 ) );
#176 = EDGE_LOOP( '', ( #250 ) );
#177 = AXIS2_PLACEMENT_3D( '', #251, #252, #253 );
#178 = SURFACE_SIDE_STYLE( '', ( #254 ) );
#179 = EDGE_LOOP( '', ( #255, #256 ) );
#180 = EDGE_LOOP( '', ( #257 ) );
#181 = AXIS2_PLACEMENT_3D( '', #258, #259, #260 );
#182 = SURFACE_SIDE_STYLE( '', ( #261 ) );
#183 = EDGE_LOOP( '', ( #262 ) );
#184 = EDGE_LOOP( '', ( #263 ) );
#185 = AXIS2_PLACEMENT_3D( '', #264, #265, #266 );
#186 = SURFACE_SIDE_STYLE( '', ( #267 ) );
#187 = EDGE_LOOP( '', ( #268 ) );
#188 = EDGE_LOOP( '', ( #269 ) );
#189 = AXIS2_PLACEMENT_3D( '', #270, #271, #272 );
#190 = SURFACE_SIDE_STYLE( '', ( #273 ) );
#191 = EDGE_LOOP( '', ( #274 ) );
#192 = EDGE_LOOP( '', ( #275 ) );
#193 = AXIS2_PLACEMENT_3D( '', #276, #277, #278 );
#195 = SURFACE_STYLE_FILL_AREA( #279 );
#196 = ORIENTED_EDGE( '', *, *, #280, .F. );
#197 = ORIENTED_EDGE( '', *, *, #281, .T. );
#198 = CARTESIAN_POINT( '', ( -157.500000000000, 0.000000000000000, 76.0000000000000 ) );
#199 = DIRECTION( '', ( -0.000000000000000, -0.000000000000000, -1.00000000000000 ) );
#200 = DIRECTION( '', ( -1.00000000000000, 0.000000000000000, 0.000000000000000 ) );
#201 = SURFACE_STYLE_FILL_AREA( #282 );
#202 = ORIENTED_EDGE( '', *, *, #283, .F. );
#203 = ORIENTED_EDGE( '', *, *, #284, .T. );
#204 = CARTESIAN_POINT( '', ( 0.000000000000000, 0.000000000000000, 0.000000000000000 ) );
#205 = DIRECTION( '', ( -1.00000000000000, -0.000000000000000, 0.000000000000000 ) );
#206 = DIRECTION( '', ( -0.000000000000000, 0.000000000000000, -1.00000000000000 ) );
#207 = SURFACE_STYLE_FILL_AREA( #285 );
#208 = ORIENTED_EDGE( '', *, *, #286, .T. );
#209 = ORIENTED_EDGE( '', *, *, #287, .T. );
#210 = ORIENTED_EDGE( '', *, *, #288, .T. );
#211 = ORIENTED_EDGE( '', *, *, #289, .T. );
#212 = CARTESIAN_POINT( '', ( 1.00000000000000, 0.000000000000000, 0.000000000000000 ) );
#213 = DIRECTION( '', ( 1.00000000000000, -0.000000000000000, -0.000000000000000 ) );
#214 = DIRECTION( '', ( 0.000000000000000, 0.000000000000000, 1.00000000000000 ) );
#215 = SURFACE_STYLE_FILL_AREA( #290 );
#216 = ORIENTED_EDGE( '', *, *, #291, .T. );
#217 = ORIENTED_EDGE( '', *, *, #292, .T. );
#218 = ORIENTED_EDGE( '', *, *, #280, .T. );
#219 = CARTESIAN_POINT( '', ( -157.500000000000, 0.000000000000000, 0.000000000000000 ) );
#220 = DIRECTION( '', ( 0.000000000000000, -0.000000000000000, 1.00000000000000 ) );
#221 = DIRECTION( '', ( -1.00000000000000, 0.000000000000000, 0.000000000000000 ) );
#222 = SURFACE_STYLE_FILL_AREA( #293 );
#223 = ORIENTED_EDGE( '', *, *, #294, .F. );
#224 = ORIENTED_EDGE( '', *, *, #295, .T. );
#225 = CARTESIAN_POINT( '', ( 0.000000000000000, 0.000000000000000, 0.000000000000000 ) );
#226 = DIRECTION( '', ( -1.00000000000000, -0.000000000000000, 0.000000000000000 ) );
#227 = DIRECTION( '', ( -0.000000000000000, 0.000000000000000, -1.00000000000000 ) );
#228 = SURFACE_STYLE_FILL_AREA( #296 );
#229 = ORIENTED_EDGE( '', *, *, #297, .F. );
#230 = ORIENTED_EDGE( '', *, *, #283, .T. );
#231 = CARTESIAN_POINT( '', ( -233.000000000000, 0.000000000000000, 0.000000000000000 ) );
#232 = DIRECTION( '', ( 1.00000000000000, -0.000000000000000, -0.000000000000000 ) );
#233 = DIRECTION( '', ( -0.000000000000000, 0.000000000000000, -1.00000000000000 ) );
#234 = SURFACE_STYLE_FILL_AREA( #298 );
#235 = ORIENTED_EDGE( '', *, *, #295, .F. );
#236 = ORIENTED_EDGE( '', *, *, #299, .T. );
#237 = CARTESIAN_POINT( '', ( -89.5500000000001, 0.000000000000000, 0.000000000000000 ) );
#238 = DIRECTION( '', ( -1.00000000000000, 0.000000000000000, -0.000000000000000 ) );
#239 = DIRECTION( '', ( 0.000000000000000, 0.000000000000000, 1.00000000000000 ) );
#240 = SURFACE_STYLE_FILL_AREA( #300 );
#241 = ORIENTED_EDGE( '', *, *, #284, .F. );
#242 = ORIENTED_EDGE( '', *, *, #287, .F. );
#243 = CARTESIAN_POINT( '', ( -315.000000000000, 0.000000000000000, 0.000000000000000 ) );
#244 = DIRECTION( '', ( 1.00000000000000, 0.000000000000000, -0.000000000000000 ) );
#245 = DIRECTION( '', ( -0.000000000000000, 0.000000000000000, -1.00000000000000 ) );
#246 = SURFACE_STYLE_FILL_AREA( #301 );
#247 = ORIENTED_EDGE( '', *, *, #299, .F. );
#248 = ORIENTED_EDGE( '', *, *, #291, .F. );
#249 = ORIENTED_EDGE( '', *, *, #292, .F. );
#250 = ORIENTED_EDGE( '', *, *, #297, .T. );
#251 = CARTESIAN_POINT( '', ( 0.000000000000000, 0.000000000000000, 0.000000000000000 ) );
#252 = DIRECTION( '', ( -1.00000000000000, -0.000000000000000, 0.000000000000000 ) );
#253 = DIRECTION( '', ( -0.000000000000000, 0.000000000000000, -1.00000000000000 ) );
#254 = SURFACE_STYLE_FILL_AREA( #302 );
#255 = ORIENTED_EDGE( '', *, *, #288, .F. );
#256 = ORIENTED_EDGE( '', *, *, #289, .F. );
#257 = ORIENTED_EDGE( '', *, *, #303, .T. );
#258 = CARTESIAN_POINT( '', ( -157.500000000000, 0.000000000000000, 159.000000000000 ) );
#259 = DIRECTION( '', ( 0.000000000000000, -0.000000000000000, 1.00000000000000 ) );
#260 = DIRECTION( '', ( -1.00000000000000, 0.000000000000000, 0.000000000000000 ) );
#261 = SURFACE_STYLE_FILL_AREA( #304 );
#262 = ORIENTED_EDGE( '', *, *, #305, .F. );
#263 = ORIENTED_EDGE( '', *, *, #303, .F. );
#264 = CARTESIAN_POINT( '', ( -157.500000000000, 0.000000000000000, 158.000000000000 ) );
#265 = DIRECTION( '', ( -0.000000000000000, 0.000000000000000, -1.00000000000000 ) );
#266 = DIRECTION( '', ( -1.00000000000000, 0.000000000000000, 0.000000000000000 ) );
#267 = SURFACE_STYLE_FILL_AREA( #306 );
#268 = ORIENTED_EDGE( '', *, *, #286, .F. );
#269 = ORIENTED_EDGE( '', *, *, #294, .T. );
#270 = CARTESIAN_POINT( '', ( 0.000000000000000, 0.000000000000000, 55.0000000000000 ) );
#271 = DIRECTION( '', ( -1.00000000000000, 0.000000000000000, 0.000000000000000 ) );
#272 = DIRECTION( '', ( 0.000000000000000, 0.000000000000000, 1.00000000000000 ) );
#273 = SURFACE_STYLE_FILL_AREA( #307 );
#274 = ORIENTED_EDGE( '', *, *, #281, .F. );
#275 = ORIENTED_EDGE( '', *, *, #305, .T. );
#276 = CARTESIAN_POINT( '', ( -157.500000000000, 0.000000000000000, 0.000000000000000 ) );
#277 = DIRECTION( '', ( 0.000000000000000, -0.000000000000000, 1.00000000000000 ) );
#278 = DIRECTION( '', ( -1.00000000000000, 0.000000000000000, 0.000000000000000 ) );
#279 = FILL_AREA_STYLE( '', ( #308 ) );
#280 = EDGE_CURVE( '', #309, #309, #310, .T. );
#281 = EDGE_CURVE( '', #311, #311, #312, .T. );
#282 = FILL_AREA_STYLE( '', ( #313 ) );
#283 = EDGE_CURVE( '', #314, #314, #315, .T. );
#284 = EDGE_CURVE( '', #316, #316, #317, .T. );
#285 = FILL_AREA_STYLE( '', ( #318 ) );
#286 = EDGE_CURVE( '', #319, #319, #320, .F. );
#287 = EDGE_CURVE( '', #321, #321, #322, .F. );
#288 = EDGE_CURVE( '', #323, #324, #325, .T. );
#289 = EDGE_CURVE( '', #324, #323, #326, .F. );
#290 = FILL_AREA_STYLE( '', ( #327 ) );
#291 = EDGE_CURVE( '', #328, #329, #330, .T. );
#292 = EDGE_CURVE( '', #329, #328, #331, .F. );
#293 = FILL_AREA_STYLE( '', ( #332 ) );
#294 = EDGE_CURVE( '', #333, #333, #334, .T. );
#295 = EDGE_CURVE( '', #335, #335, #336, .T. );
#296 = FILL_AREA_STYLE( '', ( #337 ) );
#297 = EDGE_CURVE( '', #338, #338, #339, .T. );
#298 = FILL_AREA_STYLE( '', ( #340 ) );
#299 = EDGE_CURVE( '', #341, #341, #342, .T. );
#300 = FILL_AREA_STYLE( '', ( #343 ) );
#301 = FILL_AREA_STYLE( '', ( #344 ) );
#302 = FILL_AREA_STYLE( '', ( #345 ) );
#303 = EDGE_CURVE( '', #346, #346, #347, .F. );
#304 = FILL_AREA_STYLE( '', ( #348 ) );
#305 = EDGE_CURVE( '', #349, #349, #350, .T. );
#306 = FILL_AREA_STYLE( '', ( #351 ) );
#307 = FILL_AREA_STYLE( '', ( #352 ) );
#308 = FILL_AREA_STYLE_COLOUR( '', #353 );
#309 = VERTEX_POINT( '', #354 );
#310 = CIRCLE( '', #355, 62.5500000000000 );
#311 = VERTEX_POINT( '', #356 );
#312 = CIRCLE( '', #357, 55.0000000000000 );
#313 = FILL_AREA_STYLE_COLOUR( '', #358 );
#314 = VERTEX_POINT( '', #359 );
#315 = CIRCLE( '', #360, 55.0000000000000 );
#316 = VERTEX_POINT( '', #361 );
#317 = CIRCLE( '', #362, 55.0000000000000 );
#318 = FILL_AREA_STYLE_COLOUR( '', #363 );
#319 = VERTEX_POINT( '', #364 );
#320 = CIRCLE( '', #365, 39.9000000000000 );
#321 = VERTEX_POINT( '', #366 );
#322 = CIRCLE( '', #367, 39.9000000000000 );
#323 = VERTEX_POINT( '', #368 );
#324 = VERTEX_POINT( '', #369 );
#325 = ELLIPSE( '', #370, 56.4271211387000, 39.9000000000000 );
#326 = ELLIPSE( '', #371, 56.4271211387000, 39.9000000000000 );
#327 = FILL_AREA_STYLE_COLOUR( '', #372 );
#328 = VERTEX_POINT( '', #373 );
#329 = VERTEX_POINT( '', #374 );
#330 = ELLIPSE( '', #375, 88.4590583264000, 62.5500000000000 );
#331 = ELLIPSE( '', #376, 88.4590583264000, 62.5500000000000 );
#332 = FILL_AREA_STYLE_COLOUR( '', #377 );
#333 = VERTEX_POINT( '', #378 );
#334 = CIRCLE( '', #379, 55.0000000000000 );
#335 = VERTEX_POINT( '', #380 );
#336 = CIRCLE( '', #381, 55.0000000000000 );
#337 = FILL_AREA_STYLE_COLOUR( '', #382 );
#338 = VERTEX_POINT( '', #383 );
#339 = CIRCLE( '', #384, 62.5500000000000 );
#340 = FILL_AREA_STYLE_COLOUR( '', #385 );
#341 = VERTEX_POINT( '', #386 );
#342 = CIRCLE( '', #387, 62.5500000000000 );
#343 = FILL_AREA_STYLE_COLOUR( '', #388 );
#344 = FILL_AREA_STYLE_COLOUR( '', #389 );
#345 = FILL_AREA_STYLE_COLOUR( '', #390 );
#346 = VERTEX_POINT( '', #391 );
#347 = CIRCLE( '', #392, 39.9000000000000 );
#348 = FILL_AREA_STYLE_COLOUR( '', #393 );
#349 = VERTEX_POINT( '', #394 );
#350 = CIRCLE( '', #395, 55.0000000000000 );
#351 = FILL_AREA_STYLE_COLOUR( '', #396 );
#352 = FILL_AREA_STYLE_COLOUR( '', #397 );
#353 = COLOUR_RGB( '', 0.689999997600000, 0.689999997600000, 0.689999997600000 );
#354 = CARTESIAN_POINT( '', ( -220.050000000000, 0.000000000000000, 68.4500000000000 ) );
#355 = AXIS2_PLACEMENT_3D( '', #398, #399, #400 );
#356 = CARTESIAN_POINT( '', ( -212.500000000000, 0.000000000000000, 76.0000000000000 ) );
#357 = AXIS2_PLACEMENT_3D( '', #401, #402, #403 );
#358 = COLOUR_RGB( '', 0.689999997600000, 0.689999997600000, 0.689999997600000 );
#359 = CARTESIAN_POINT( '', ( -233.000000000000, 0.000000000000000, -55.0000000000000 ) );
#360 = AXIS2_PLACEMENT_3D( '', #404, #405, #406 );
#361 = CARTESIAN_POINT( '', ( -315.000000000000, 0.000000000000000, -55.0000000000000 ) );
#362 = AXIS2_PLACEMENT_3D( '', #407, #408, #409 );
#363 = COLOUR_RGB( '', 0.689999997600000, 0.689999997600000, 0.689999997600000 );
#364 = CARTESIAN_POINT( '', ( 0.000000000000000, 0.000000000000000, 39.9000000000000 ) );
#365 = AXIS2_PLACEMENT_3D( '', #410, #411, #412 );
#366 = CARTESIAN_POINT( '', ( -315.000000000000, 0.000000000000000, -39.9000000000000 ) );
#367 = AXIS2_PLACEMENT_3D( '', #413, #414, #415 );
#368 = CARTESIAN_POINT( '', ( -157.500000000000, -39.9000000000000, 0.000000000000000 ) );
#369 = CARTESIAN_POINT( '', ( -157.500000000000, 39.9000000000000, 0.000000000000000 ) );
#370 = AXIS2_PLACEMENT_3D( '', #416, #417, #418 );
#371 = AXIS2_PLACEMENT_3D( '', #419, #420, #421 );
#372 = COLOUR_RGB( '', 0.689999997600000, 0.689999997600000, 0.689999997600000 );
#373 = CARTESIAN_POINT( '', ( -157.500000000000, 62.5500000000000, 0.000000000000000 ) );
#374 = CARTESIAN_POINT( '', ( -157.500000000000, -62.5500000000000, 0.000000000000000 ) );
#375 = AXIS2_PLACEMENT_3D( '', #422, #423, #424 );
#376 = AXIS2_PLACEMENT_3D( '', #425, #426, #427 );
#377 = COLOUR_RGB( '', 0.689999997600000, 0.689999997600000, 0.689999997600000 );
#378 = CARTESIAN_POINT( '', ( 0.000000000000000, 0.000000000000000, -55.0000000000000 ) );
#379 = AXIS2_PLACEMENT_3D( '', #428, #429, #430 );
#380 = CARTESIAN_POINT( '', ( -82.0000000000000, 0.000000000000000, -55.0000000000000 ) );
#381 = AXIS2_PLACEMENT_3D( '', #431, #432, #433 );
#382 = COLOUR_RGB( '', 0.689999997600000, 0.689999997600000, 0.689999997600000 );
#383 = CARTESIAN_POINT( '', ( -225.450000000000, 0.000000000000000, -62.5500000000000 ) );
#384 = AXIS2_PLACEMENT_3D( '', #434, #435, #436 );
#385 = COLOUR_RGB( '', 0.689999997600000, 0.689999997600000, 0.689999997600000 );
#386 = CARTESIAN_POINT( '', ( -89.5500000000001, 0.000000000000000, -62.5500000000000 ) );
#387 = AXIS2_PLACEMENT_3D( '', #437, #438, #439 );
#388 = COLOUR_RGB( '', 0.689999997600000, 0.689999997600000, 0.689999997600000 );
#389 = COLOUR_RGB( '', 0.689999997600000, 0.689999997600000, 0.689999997600000 );
#390 = COLOUR_RGB( '', 0.689999997600000, 0.689999997600000, 0.689999997600000 );
#391 = CARTESIAN_POINT( '', ( -197.400000000000, 0.000000000000000, 158.000000000000 ) );
#392 = AXIS2_PLACEMENT_3D( '', #440, #441, #442 );
#393 = COLOUR_RGB( '', 0.689999997600000, 0.689999997600000, 0.689999997600000 );
#394 = CARTESIAN_POINT( '', ( -212.500000000000, 0.000000000000000, 158.000000000000 ) );
#395 = AXIS2_PLACEMENT_3D( '', #443, #444, #445 );
#396 = COLOUR_RGB( '', 0.689999997600000, 0.689999997600000, 0.689999997600000 );
#397 = COLOUR_RGB( '', 0.689999997600000, 0.689999997600000, 0.689999997600000 );
#398 = CARTESIAN_POINT( '', ( -157.500000000000, 0.000000000000000, 68.4500000000000 ) );
#399 = DIRECTION( '', ( -0.000000000000000, 0.000000000000000, -1.00000000000000 ) );
#400 = DIRECTION( '', ( -1.00000000000000, 0.000000000000000, 0.000000000000000 ) );
#401 = CARTESIAN_POINT( '', ( -157.500000000000, 0.000000000000000, 76.0000000000000 ) );
#402 = DIRECTION( '', ( -0.000000000000000, 0.000000000000000, -1.00000000000000 ) );
#403 = DIRECTION( '', ( -1.00000000000000, 0.000000000000000, 0.000000000000000 ) );
#404 = CARTESIAN_POINT( '', ( -233.000000000000, 0.000000000000000, 0.000000000000000 ) );
#405 = DIRECTION( '', ( 1.00000000000000, 0.000000000000000, -0.000000000000000 ) );
#406 = DIRECTION( '', ( -0.000000000000000, 0.000000000000000, -1.00000000000000 ) );
#407 = CARTESIAN_POINT( '', ( -315.000000000000, 0.000000000000000, 0.000000000000000 ) );
#408 = DIRECTION( '', ( 1.00000000000000, 0.000000000000000, -0.000000000000000 ) );
#409 = DIRECTION( '', ( -0.000000000000000, 0.000000000000000, -1.00000000000000 ) );
#410 = CARTESIAN_POINT( '', ( 0.000000000000000, 0.000000000000000, 0.000000000000000 ) );
#411 = DIRECTION( '', ( -1.00000000000000, 0.000000000000000, 0.000000000000000 ) );
#412 = DIRECTION( '', ( 0.000000000000000, 0.000000000000000, 1.00000000000000 ) );
#413 = CARTESIAN_POINT( '', ( -315.000000000000, 0.000000000000000, 0.000000000000000 ) );
#414 = DIRECTION( '', ( 1.00000000000000, 0.000000000000000, -0.000000000000000 ) );
#415 = DIRECTION( '', ( -0.000000000000000, 0.000000000000000, -1.00000000000000 ) );
#416 = CARTESIAN_POINT( '', ( -157.500000000000, 0.000000000000000, 2.77555756156289E-14 ) );
#417 = DIRECTION( '', ( -0.707106781186548, 0.000000000000000, 0.707106781186547 ) );
#418 = DIRECTION( '', ( -0.707106781186547, -0.000000000000000, -0.707106781186548 ) );
#419 = CARTESIAN_POINT( '', ( -157.500000000000, 0.000000000000000, 2.77555756156289E-14 ) );
#420 = DIRECTION( '', ( -0.707106781186548, 0.000000000000000, -0.707106781186547 ) );
#421 = DIRECTION( '', ( -0.707106781186547, 0.000000000000000, 0.707106781186548 ) );
#422 = CARTESIAN_POINT( '', ( -157.500000000000, 0.000000000000000, 0.000000000000000 ) );
#423 = DIRECTION( '', ( 0.707106781186548, 0.000000000000000, 0.707106781186548 ) );
#424 = DIRECTION( '', ( 0.707106781186547, -0.000000000000000, -0.707106781186547 ) );
#425 = CARTESIAN_POINT( '', ( -157.500000000000, 0.000000000000000, 0.000000000000000 ) );
#426 = DIRECTION( '', ( 0.707106781186548, 0.000000000000000, -0.707106781186548 ) );
#427 = DIRECTION( '', ( 0.707106781186547, 0.000000000000000, 0.707106781186547 ) );
#428 = CARTESIAN_POINT( '', ( 0.000000000000000, 0.000000000000000, 0.000000000000000 ) );
#429 = DIRECTION( '', ( 1.00000000000000, 0.000000000000000, -0.000000000000000 ) );
#430 = DIRECTION( '', ( -0.000000000000000, 0.000000000000000, -1.00000000000000 ) );
#431 = CARTESIAN_POINT( '', ( -82.0000000000000, 0.000000000000000, 0.000000000000000 ) );
#432 = DIRECTION( '', ( 1.00000000000000, 0.000000000000000, -0.000000000000000 ) );
#433 = DIRECTION( '', ( -0.000000000000000, 0.000000000000000, -1.00000000000000 ) );
#434 = CARTESIAN_POINT( '', ( -225.450000000000, 0.000000000000000, 0.000000000000000 ) );
#435 = DIRECTION( '', ( 1.00000000000000, 0.000000000000000, -0.000000000000000 ) );
#436 = DIRECTION( '', ( -0.000000000000000, 0.000000000000000, -1.00000000000000 ) );
#437 = CARTESIAN_POINT( '', ( -89.5500000000001, 0.000000000000000, 0.000000000000000 ) );
#438 = DIRECTION( '', ( 1.00000000000000, 0.000000000000000, -0.000000000000000 ) );
#439 = DIRECTION( '', ( -0.000000000000000, 0.000000000000000, -1.00000000000000 ) );
#440 = CARTESIAN_POINT( '', ( -157.500000000000, 0.000000000000000, 158.000000000000 ) );
#441 = DIRECTION( '', ( -0.000000000000000, 0.000000000000000, -1.00000000000000 ) );
#442 = DIRECTION( '', ( -1.00000000000000, 0.000000000000000, 0.000000000000000 ) );
#443 = CARTESIAN_POINT( '', ( -157.500000000000, 0.000000000000000, 158.000000000000 ) );
#444 = DIRECTION( '', ( -0.000000000000000, 0.000000000000000, -1.00000000000000 ) );
#445 = DIRECTION( '', ( -1.00000000000000, 0.000000000000000, 0.000000000000000 ) );
ENDSEC;
END-ISO-10303-21;
